Song name
# A B C D E F G H I J K L M N O P Q R S T U V W X Y Z

Hollywood Undead - Bullet tab

Band - Hollywood Undead
Song - Bullet
Album - American Tragedy
Tabbed By: Tyler F.(SumFX)

Not A Fan Of This Band At All But I Got A Request to tab It So Here It Is.

In The Key Of: E Major
Tuning: Standard

Intro/Verse/Chorus
 E    B   C#m A
|-0-------4---5----|
|-0---4---5---5----|
|-1---4---6---6----|
|-2---4---6---7----|
|-2---2---4---7----|
|-0-----------5----|

Intro
This Is What The Other Instrument Plays During The Intro:
|-16----16----16-----16-----|-14----14----14----14-----|
|----17----17-----17----17--|----16----16----16----16--|
|---------------------------|--------------------------|
|---------------------------|--------------------------|
|---------------------------|--------------------------|
|---------------------------|--------------------------|

|-12----12----12----12-----|-16----14----12----14-----|
|----14-----14---14----14--|----14----14----14----14--|
|--------------------------|--------------------------|
|--------------------------|--------------------------|
|--------------------------|--------------------------|
|--------------------------|--------------------------|


Pre Chorus
There Is Actually No Guitar During The Pre Chorus
But....
If You're Desperate To Play Chords During The Pre Chorus
You Can Play:

G#m  F#m  E   D#  C#m B
|-11--9-----------4------|
|-12--10--9---8---5---4--|
|-13--11--9---8---6---4--|
|-13--11--9---8---6---4--|
|-11--9---7---6---4---2--|
|------------------------|
Note:
If We Were Sticking To Solid Theory That D# Should Really Be A D#Dim,
But IMO A D#Dim Doesn't Flow Very Well In This Song.

Overdub Lead
Comes In At:1.54
|-12-------14------12-------12-----12-14--|
|------12------12-------12------12--------|
|-----------------------------------------|
|-----------------------------------------|
|-----------------------------------------|
|-----------------------------------------|

Outro
Something Like This Is Played During The Chorus Aswell.
Starts At: 2.45
|---------16-14----------14----------12-14-12--|
|------16-------------16----17--1414-----------|
|-1616-----------1616--------------------------|
|----------------------------------------------|
|----------------------------------------------|
|----------------------------------------------|

|---------14-16----------16-14----------14----------12-14-12-|
|------16-------------16-------------16----17--1414----------|
|-1616-----------1616-----------1616-------------------------|
|------------------------------------------------------------|
|------------------------------------------------------------|
|------------------------------------------------------------|

|---------14-16----------16-14----------14----------12-14-12-|
|------16-------------16-------------16----17--1414----------|
|-1616-----------1616-----------1616-------------------------|
|------------------------------------------------------------|
|------------------------------------------------------------|
|------------------------------------------------------------|

|------12-14-12----|
|-1414-------------|
|------------------|
|------------------|
|------------------|
|------------------|

Structure
Intro
Verse
Pre Chorus
Chorus
Verse
Pre Chorus
Chorus
Outro

Well Thats It, Not Too Detailed I Know But You Should Get The Basics
From This Tab :)
Rate And Comment Please
Tap to rate this tab
 
# A B C D E F G H I J K L M N O P Q R S T U V W X Y Z