Song name
# A B C D E F G H I J K L M N O P Q R S T U V W X Y Z

Hollywood Undead - Been To Hell tab

-------------------------------------------------------------------------------
		 been to hell - hollywood undead
-------------------------------------------------------------------------------
Tabbed by:powermanrocks
Email:mickrocks93x@gmail.com

Tuning:
intro
e|---------------------------------------------------------------------------|
B|---------------------------------------------------------------------------|
G|---------------------------------------------------------------------------|
D|---44--1197--479-----------------------------------------------------------|
A|---44--1197--479-----------------------------------------------------------|
E|---44--1197--479-----------------------------------------------------------|
verse
e|---------------------------------------------------------------------------|
B|---------------------------------------------------------------------------|
G|---------------------------------------------------------------------------|
D|--44-----------------------4~----------------------------------------------|
A|--44-----x4----on 4th time-4~----------------------------------------------|
E|--44-----------------------4~----------------------------------------------|
verse variation
e|---------------------------------------------------------------------------|
B|---------------------------------------------------------------------------|
G|---------------------------------------------------------------------------|
D|-------2-4-----------------------------------------------------------------|
A|-------2-4-----------------------------------------------------------------|
E|-------2-4-----------------------------------------------------------------|

e|---------------------------------------------------------------------------|
B|---------------------------------------------------------------------------|
G|---------------------------------------------------------------------------|
D|---4444-7777-2222--4444-7777-9999------------------------------------------|
A|---4444-7777-2222--4444-7777-9999------------------------------------------|
E|---4444-7777-2222--4444-7777-9999------------------------------------------|


************************************

| /   slide up
| \   slide down
| h   hammer-on
| p   pull-off
| ~   vibrato
| +   harmonic
| x   Mute note
| b   Bend
| pb  Pre-bend
| br  Bend release
| pbr Pre-bend release
| brb Bend release bend

************************************
Tap to rate this tab
# A B C D E F G H I J K L M N O P Q R S T U V W X Y Z