Hollywood Undead - Le Deux tab

Artist: Hollywood Undead
Song: Le Deux
Album: American Tragedy.

Intro:
No Guitar.

Verse:
e|-------------------|---------------------------|
B|-------------------|---------------------------|
G|-------------------|------------14-13-12-/7----|
D|--0-0-0---0-0------|-0-0-0---0--x--x--x---x----| x4
A|--0-0-0---0-0--x3--|-0-0-0---0--12-11-10-/5----|
D|--0-0-0---0-0------|-0-0-0---0-----------------|

e|----------------------|
B|----------------------|
G|----------------------|
D|--0-0-0---0-0-----0---| 
A|--0-0-0---0-0-----0---|
D|--0-0-0---0-0-----0---|

e|------------------------------------------|
B|------------------------------------------|
G|----------------------------14-13-12-/7---|
D|--0-0-0---0-0-----0---------x--x--x---x---| 
A|--0-0-0---0-0-----0---------12-11-10-/5---|
D|--0-0-0---0-0-----0-----------------------|


Pre Chorus:
No Guitar.

Chorus:
e|---------------------------------------------------------------|
B|---------------------------------------------------------------|
G|-----------------7-7---7-7-7~----------------------------------|
D|-3-3---3-3-3~----7-7---7-7-7~---0-0---0-0-0~----0-0---0-0-0~---|
A|-3-3---3-3-3~----5-5---5-5-5~---0-0---0-0-0~----0-0---0-0-0~---|
D|-3-3---3-3-3~-------------------0-0---0-0-0~----0-0---0-0-0~---|

e|----------------------------------------------|
B|----------------------------------------------|
G|-----------------7-7---7-7-7~-----------------|
D|-3-3---3-3-3~----7-7---7-7-7~---0-0---0-0-0---|
A|-3-3---3-3-3~----5-5---5-5-5~---0-0---0-0-0---|
D|-3-3---3-3-3~-------------------0-0---0-0-0---|

Pre Verse:
e|-------------------------------------------|
B|-------------------------------------------|
G|----------------------------14-13-12-/7----|
D|--0-0-0---0-0----0-0-0---0--x--x--x---x----| 
A|--0-0-0---0-0----0-0-0---0--12-11-10-/5----|
D|--0-0-0---0-0----0-0-0---0-----------------|

Verse:
e|-------------------|---------------------------|
B|-------------------|---------------------------|
G|-------------------|------------14-13-12-/7----|
D|--0-0-0---0-0------|-0-0-0---0--x--x--x---x----| x2
A|--0-0-0---0-0--x3--|-0-0-0---0--12-11-10-/5----|
D|--0-0-0---0-0------|-0-0-0---0-----------------|


e|-----------------------|
B|-----------------------|
G|-----------------------|
D|--0-0-0---0-0----0-0---| 
A|--0-0-0---0-0----0-0---|
D|--0-0-0---0-0----0-0---|

e|-------------------------------------------|
B|-------------------------------------------|
G|-----------------------------14-13-12-/7---|
D|--0-0-0---0-0-----0-0--------x--x--x---x---| 
A|--0-0-0---0-0-----0-0--------12-11-10-/5---|
D|--0-0-0---0-0-----0-0----------------------|

Pre Chorus:
No Guitar.

Chorus:
e|---------------------------------------------------------------|
B|---------------------------------------------------------------|
G|-----------------7-7---7-7-7~----------------------------------|
D|-3-3---3-3-3~----7-7---7-7-7~---0-0---0-0-0~----0-0---0-0-0~---|
A|-3-3---3-3-3~----5-5---5-5-5~---0-0---0-0-0~----0-0---0-0-0~---|
D|-3-3---3-3-3~-------------------0-0---0-0-0~----0-0---0-0-0~---|

e|-----------------------------------------------|
B|-----------------------------------------------|
G|-----------------7-7---7-7-7~------------------|
D|-3-3---3-3-3~----7-7---7-7-7~---0-0---0-0-0~---|
A|-3-3---3-3-3~----5-5---5-5-5~---0-0---0-0-0~---|
D|-3-3---3-3-3~-------------------0-0---0-0-0~---|

Bridge:
No Guitar.

Chorus:
e|---------------------------------------------------------------|
B|---------------------------------------------------------------|
G|-----------------7-7---7-7-7~----------------------------------|
D|-3-3---3-3-3~----7-7---7-7-7~---0-0---0-0-0~----0-0---0-0-0~---| x5
A|-3-3---3-3-3~----5-5---5-5-5~---0-0---0-0-0~----0-0---0-0-0~---|
D|-3-3---3-3-3~-------------------0-0---0-0-0~----0-0---0-0-0~---|

Outro:
No guitar.



Should be perfect. Replayed the song over and over again. Have fun with it! :)
More tabs will follow.
Tap to rate this tab
 
# A B C D E F G H I J K L M N O P Q R S T U V W X Y Z