Hollywood Undead - Lump Your Head tab

Pretty easy song, I'm pretty sure this is how it goes.

The whole song has this rhythm playing through it. The verse only has bass though. 


e|----------------------------------|
B|----------------------------------|
G|----------------------------------|
D|-----10-10----8-8----6-6---5-5-5--|
A|-----10-10----8-8----6-6---5-5-3--|
E|-----8--8-----6-6----4-4---3-3-3--|

And right before the verse starts:
e|-----------------------|
B|-----------------------|
G|-----------------------|
D|-----10-10----8-8----6-|
A|-----10-10----8-8----6-|
E|-----8--8-----6-6----4-|





Awesome song too. Great album.
Tap to rate this tab
 
# A B C D E F G H I J K L M N O P Q R S T U V W X Y Z