Hollywood Undead - My Black Dahlia tab

Guitar One intro 4x (play throughout song)
E------------------------------------------------------------|----------|
B-----------------------------------------------------------------------|Play last time
G------------------2-2-2-2-2-2-2-2--2-2-2-2-2-2-2-2--4-4-4-4-|-4-4-4-4--|
D-4-4-4-4-4-4-4-4--2-2-2-2-2-2-2-2--0-0-0-0-0-0-0-0--2-2-2-2-|-2-2-2-2--|
A-4-4-4-4-4-4-4-4--0-0-0-0-0-0-0-0---------------------------|----------|
D-4-4-4-4-4-4-4-4--------------------------------------------|----------|

Guitar two repeated through verses (orchestra)
E--------------------------|
B--------------------------|
G-6--7--6--7--6--7--9--11--|
D--4--4--4--4--4--4--4---4-|
A--------------------------|
D--------------------------|

Guitar three (played throughout intro and chorus)
E------------------------------------------------------------------------|
B-------------------------3~--5~--2~--------------------------3~--5~--9~-|
G---------------------2~----------------------------------2~-------------|
D-4~--2~--0~------4~------------------4~--2~--0~------4~-----------------|
A-------------4~----------------------------------4~---------------------|
D------------------------------------------------------------------------|

Guitar two chorus
E---------------------------------------------------|
B------------------------3-3--3-3-3-3--5-5--5-5-5-5-|
G---------------2-2--2-2-2-2--2-2-2-2--4-4--4-4-4-4-|
D-4-4--4-4-4-4--2-2--2-2-0-0--0-0-0-0--2-2--2-2-2-2-|
A-4-4--4-4-4-4--0-0--0-0----------------------------|
D-4-4--4-4-4-4--------------------------------------|
Tap to rate this tab
 
# A B C D E F G H I J K L M N O P Q R S T U V W X Y Z