Hollywood Undead - Levitate tab

-------------------------------------------------------------------------------
			     LEVITATE - HOLLYWOOD UNDEAD
-------------------------------------------------------------------------------
Tabbed by:sexybeast1497
Email:sexybeast1497@hotmail.com
 Please, if you have any suggestions or hints please email me. thank you and enjoy.
Tuning: drop c

|---------------------------------------------------------------------------|
|---------------------------------------------------------------------------|
|---------------------------------------------------------------------------|
|---------------------------------------------------------------------------|
|---------------------------------------------------------------------------|
|--7\---3/---5\---0/---7\---3/---5\---0/------------------------------------|
you will have to figure out yourself how many times to do that.
|---------------------------------------------------------------------------|
|---------------------------------------------------------------------------|
|---------------------------------------------------------------------------|
|---------------------------------------------------------------------------|
|-7-7-7-7\-3-3-3-3/-5-5-5-5\-0-0-0-0/---------------------------------------|
|-7-7-7-7\-3-3-3-3/-5-5-5-5\-0-0-0-0/---------------------------------------|

|---------------------------------------------------------------------------|
|---------------------------------------------------------------------------|
|---------------------------------------------------------------------------|
|-7-7-7-7-10-10-10-10-9-9-9-9-7-7-7-7----7-7-7-7-10-10-10-10-9-9-9-9-5-5-5-5|
|---------------------------------------------------------------------------|
|---------------------------------------------------------------------------|

I cannot figure out the chorus so if you can figure it out please email me and I will 
add it to my tab.
************************************

| /   slide up
| \   slide down
| h   hammer-on
| p   pull-off
| ~   vibrato
| +   harmonic
| x   Mute note
| b   Bend
| pb  Pre-bend
| br  Bend release
| pbr Pre-bend release
| brb Bend release bend

************************************
Tap to rate this tab
 
# A B C D E F G H I J K L M N O P Q R S T U V W X Y Z