Song name
# A B C D E F G H I J K L M N O P Q R S T U V W X Y Z

Hollywood Undead - Been To Hell tab

Legend
--------------|
/ Slide up    |
\ Slide Down  |
x Mute Note   |
~ Let ring    |
^ Palm mute   |
+ Flanger     |
--------------|
Song: Been To Hell
Artist: Hollywood Undead
Tuning: Drop D
Tabbed By: Mattythawank

e]---------------------|
b]---------------------|
g]---------------------|
d]-22--9-7-5--2-5-77---|
a]-22--9-7-5--2-5-77---|
d]-22--9-7-5--2-5-77---|



e]---------------------|
b]---------------------|
g]---------------------|
d]-22--9-7-5--2-5-77---|
a]-22--9-7-5--2-5-77---|
d]-22--9-7-5--2-5-77---|



e]---------------------|
b]---------------------|
g]---------------------|
d]-22--9-7-5--2-5-77---|
a]-22--9-7-5--2-5-77---|
d]-22--9-7-5--2-5-77---|



e]---------------------|
b]---------------------|
g]---------------------|
d]-22--9-7-5--2-5-77---|
a]-22--9-7-5--2-5-77---|
d]-22--9-7-5--2-5-77---|



e]---------------------------------------------------------------|
b]---------------------------------------------------------------|
g]---------------------------------------------------------------|
d]--222--------------222--------------222--------------222~--xxx-|
a]--222--------------222--------------222--------------222~--xxx-|
d]--222--------------222--------------222--------------222~--xxx-|



e]---------------------------------------------------------------|
b]---------------------------------------------------------------|
g]---------------------------------------------------------------|
d]--222--------------222--------------222--------------222~--xxx-|
a]--222-2-0-----2-00-222-2-0-----2-00-222-2-0-----2-00-222~--xxx-|
d]--222-----5~25-----222-----5~25-----222-----5~25-----222~--xxx-|
        ^ ^ ^ ^^^ ^^     ^ ^ ^ ^^^ ^^     ^ ^ ^ ^^^ ^^


e]----------------------------------------------------------------|
b]----------------------------------------------------------------|
g]----------------------------------------------------------------|
d]-2-2-2~-2/5--5-5-5--0000--02-2-2~-2/5--5-5-5/7--7777------------|
a]-2-2-2~-2/5--5-5-5--0000--02-2-2~-2/5--5-5-5/7--7777------------|
d]-2-2-2~-2/5--5-5-5--0000--02-2-2~-2/5--5-5-5/7--7777------------|



e]----------------------------------------------------------------|
b]----------------------------------------------------------------|
g]----------------------------------------------------------------|
d]-2-2-2~-2/5--5-5-5--0000--02-2-2~-2/5--5-5-5/7--7777------------|
a]-2-2-2~-2/5--5-5-5--0000--02-2-2~-2/5--5-5-5/7--7777------------|
d]-2-2-2~-2/5--5-5-5--0000--02-2-2~-2/5--5-5-5/7--7777------------|



e]----------------------------------------------------------------|
b]----------------------------------------------------------------|
g]----------------------------------------------------------------|
d]-2-2-2~-2/5--5-5-5--0000--02-2-2~-2/5--5-5-5/7--7777------------|
a]-2-2-2~-2/5--5-5-5--0000--02-2-2~-2/5--5-5-5/7--7777------------|
d]-2-2-2~-2/5--5-5-5--0000--02-2-2~-2/5--5-5-5/7--7777------------|



e]----------------------------------------------------------------|
b]----------------------------------------------------------------|
g]----------------------------------------------------------------|
d]-2-2-2~-2/5--5-5-5--0000--02-2-2~-2/5--5-5-5/7--7777------------|
a]-2-2-2~-2/5--5-5-5--0000--02-2-2~-2/5--5-5-5/7--7777------------|
d]-2-2-2~-2/5--5-5-5--0000--02-2-2~-2/5--5-5-5/7--7777------------|



e]---------------------|
b]---------------------|
g]---------------------|
d]-22--9-7-5--2-5-77---|
a]-22--9-7-5--2-5-77---|
d]-22--9-7-5--2-5-77---|



e]---------------------|
b]---------------------|
g]---------------------|
d]-22--9-7-5--2-5-77---|
a]-22--9-7-5--2-5-77---|
d]-22--9-7-5--2-5-77---|



e]---------------------------------------------------------------|
b]---------------------------------------------------------------|
g]---------------------------------------------------------------|
d]--222--------------222--------------222--------------222~--xxx-|
a]--222-2-0-----2-00-222-2-0-----2-00-222-2-0-----2-00-222~--xxx-|
d]--222-----5~25-----222-----5~25-----222-----5~25-----222~--xxx-|
        ^ ^ ^ ^^^ ^^     ^ ^ ^ ^^^ ^^     ^ ^ ^ ^^^ ^^



e]---------------------------------------------------------------|
b]---------------------------------------------------------------|
g]---------------------------------------------------------------|
d]--222--------------222--------------222--------------222~------|
a]--222-2-0-----2-00-222-2-0-----2-00-222-2-0-----2-00-222~------|
d]--222-----5~25-----222-----5~25-----222-----5~25-----222~------|
        ^ ^ ^ ^^^ ^^     ^ ^ ^ ^^^ ^^     ^ ^ ^ ^^^ ^^ +++



e]----------------------------------------------------------------|
b]----------------------------------------------------------------|
g]----------------------------------------------------------------|
d]-2-2-2~-2/5--5-5-5--0000--02-2-2~-2/5--5-5-5/7--7777------------|
a]-2-2-2~-2/5--5-5-5--0000--02-2-2~-2/5--5-5-5/7--7777------------|
d]-2-2-2~-2/5--5-5-5--0000--02-2-2~-2/5--5-5-5/7--7777------------|



e]----------------------------------------------------------------|
b]----------------------------------------------------------------|
g]----------------------------------------------------------------|
d]-2-2-2~-2/5--5-5-5--0000--02-2-2~-2/5--5-5-5/7--7777------------|
a]-2-2-2~-2/5--5-5-5--0000--02-2-2~-2/5--5-5-5/7--7777------------|
d]-2-2-2~-2/5--5-5-5--0000--02-2-2~-2/5--5-5-5/7--7777------------|



e]----------------------------------------------------------------|
b]----------------------------------------------------------------|
g]----------------------------------------------------------------|
d]-2-2-2~-2/5--5-5-5--0000--02-2-2~-2/5--5-5-5/7--7777------------|
a]-2-2-2~-2/5--5-5-5--0000--02-2-2~-2/5--5-5-5/7--7777------------|
d]-2-2-2~-2/5--5-5-5--0000--02-2-2~-2/5--5-5-5/7--7777------------|



e]----------------------------------------------------------------|
b]----------------------------------------------------------------|
g]----------------------------------------------------------------|
d]-2-2-2~-2/5--5-5-5--0000--02-2-2~-2/5--5-5-5/7--7777------------|
a]-2-2-2~-2/5--5-5-5--0000--02-2-2~-2/5--5-5-5/7--7777------------|
d]-2-2-2~-2/5--5-5-5--0000--02-2-2~-2/5--5-5-5/7--7777------------|



e]---------------------|
b]---------------------|
g]---------------------|
d]-22--9-7-5--2-5-77---|
a]-22--9-7-5--2-5-77---|
d]-22--9-7-5--2-5-77---|



e]---------------------|
b]---------------------|
g]---------------------|
d]-22--9-7-5--2-5-77---|
a]-22--9-7-5--2-5-77---|
d]-22--9-7-5--2-5-77---|



e]---------------------------------------------------------------|
b]---------------------------------------------------------------|
g]---------------------------------------------------------------|
d]--222--------------222--------------222--------------222~--xxx-|
a]--222-2-0-----2-00-222-2-0-----2-00-222-2-0-----2-00-222~--xxx-|
d]--222-----5~25-----222-----5~25-----222-----5~25-----222~--xxx-|
        ^ ^ ^ ^^^ ^^     ^ ^ ^ ^^^ ^^     ^ ^ ^ ^^^ ^^



e]---------------------------------------------------------------|
b]---------------------------------------------------------------|
g]---------------------------------------------------------------|
d]--222--------------222--------------222--------------2-2-------|
a]--222-2-0-----2-00-222-2-0-----2-00-222-2-0-----2-00-2-2-------|
d]--222-----5~25-----222-----5~25-----222-----5~25-----2-2-------|
        ^ ^ ^ ^^^ ^^     ^ ^ ^ ^^^ ^^     ^ ^ ^ ^^^ ^^



e]----------------------------------------------------------------|
b]----------------------------------------------------------------|
g]----------------------------------------------------------------|
d]-2-2-2~-2/5--5-5-5--0000--02-2-2~-2/5--5-5-5/7--7777------------|
a]-2-2-2~-2/5--5-5-5--0000--02-2-2~-2/5--5-5-5/7--7777------------|
d]-2-2-2~-2/5--5-5-5--0000--02-2-2~-2/5--5-5-5/7--7777------------|



e]----------------------------------------------------------------|
b]----------------------------------------------------------------|
g]----------------------------------------------------------------|
d]-2-2-2~-2/5--5-5-5--0000--02-2-2~-2/5--5-5-5/7--7777------------|
a]-2-2-2~-2/5--5-5-5--0000--02-2-2~-2/5--5-5-5/7--7777------------|
d]-2-2-2~-2/5--5-5-5--0000--02-2-2~-2/5--5-5-5/7--7777------------|



e]----------------------------------------------------------------|
b]----------------------------------------------------------------|
g]----------------------------------------------------------------|
d]-2-2-2~-2/5--5-5-5--0000--02-2-2~-2/5--5-5-5/7--7777------------|
a]-2-2-2~-2/5--5-5-5--0000--02-2-2~-2/5--5-5-5/7--7777------------|
d]-2-2-2~-2/5--5-5-5--0000--02-2-2~-2/5--5-5-5/7--7777------------|



e]----------------------------------------------------------------|
b]----------------------------------------------------------------|
g]----------------------------------------------------------------|
d]-2-2-2~-2/5--5-5-5--0000--02-2-2~-2/5--5-5-5/7--7777------------|
a]-2-2-2~-2/5--5-5-5--0000--02-2-2~-2/5--5-5-5/7--7777------------|
d]-2-2-2~-2/5--5-5-5--0000--02-2-2~-2/5--5-5-5/7--7777------------|



e]---------------------|
b]---------------------|
g]---------------------|
d]-22--9-7-5--2-5-77---|
a]-22--9-7-5--2-5-77---|
d]-22--9-7-5--2-5-77---|



e]---------------------|
b]---------------------|
g]---------------------|
d]-22--9-7-5--2-5-77---|
a]-22--9-7-5--2-5-77---|
d]-22--9-7-5--2-5-77---|



e]---------------------|
b]---------------------|
g]---------------------|
d]-22--9-7-5--2-5-77---|
a]-22--9-7-5--2-5-77---|
d]-22--9-7-5--2-5-77---|



e]---------------------|
b]---------------------|
g]---------------------|
d]-22--9-7-5--2-5-77---|
a]-22--9-7-5--2-5-77---|
d]-22--9-7-5--2-5-77---|



e]---------------------|
b]---------------------|
g]---------------------|
d]-2-2~----------------|
a]-2-2~----------------|
d]-2-2~----------------|
Tap to rate this tab
# A B C D E F G H I J K L M N O P Q R S T U V W X Y Z