Song name
# A B C D E F G H I J K L M N O P Q R S T U V W X Y Z

Hollywood Undead - Tendencies tab

Legend
--------------------------|
h Hammer on               |
p Pull off                |
x mute                    |
P.M. Palm mute            |
()x depress note and mute |
{} First time only        |
* Harmony                 |
/ Slide up                |
\ Slide down              |
+ Play at the end of riff |
~ Let ring                |
^^^ Pick Scrape           |
--------------------------|

Song: Tendencies
Artist: Hollywood Undead
Tabbed By: Mattythwank
Tuning: Drop D
This song is tabbed as it is played. Just scroll through all of the riffs and play
          Bass Line
e]----------------------------|
b]----------------------------|
g]----------------------------|
d]----------------------------| Repeat throughout the song
a]----------------------------|
d]-0-3-5--8-7-5---0-3-5--8--7-|

  Guitar 1 Medium Distortion

e]----------------------------|
b]----------------------------|
g]----------------------------|
d]-5-x-5-x-5-x-5-557\---------|
a]-3-x-3-x-3-x-3-335\---------|
d]----------------------------|



e]-----------------------(7)x-|
b]-----------------------(7)x-|
g]-----------------------(7)x-|
d]-5-x-5-x-5-x-5-xx-(5)x-(7)x-|
a]-3-x-3-x-3-x-3-xx-(5)x-(7)x-|
d]-----------------------(7)x-|



e]----------------------------|
b]----------------------------|
g]----------------------------|
d]-000-333-555-/-8-7-5--------|
a]-000-333-555-/-8-7-5--------|
d]-000-333-555-/-8-7-5--------|



e]----------------------------|
b]----------------------------|
g]----------------------------|
d]-000-333-555-/-8--7---------|
a]-000-333-555-/-8--7---------|
d]-000-333-555-/-8--7---------|



e]----------------------------|
b]----------------------------|
g]----------------------------|
d]-000-333-555-/-8-7-5--------|
a]-000-333-555-/-8-7-5--------|
d]-000-333-555-/-8-7-5--------|



e]----------------------------|
b]----------------------------|
g]----------------------------|
d]-000-333-555-/-8--7---------|
a]-000-333-555-/-8--7---------|
d]-000-333-555-/-8--7---------|



e]----------------------------------------------|
b]----------------------------------------------|
g]-------------*h7------------------------------|
d]------------------x--x--xxx---^^^---x--x--xxx-|
a]-0~--*h5----------x--x--xxx---^^^---x--x--xxx-|
d]-0~---------------x--x--xxx---^^^---x--x--xxx-|



e]----------------------------------------------|
b]----------------------------------------------|
g]----------------------------------------------|
d]--^^^---x--x--xxx---^^^---x--x--xxx-----------|
a]--^^^---x--x--xxx---^^^---x--x--xxx-----------|
d]--^^^---x--x--xxx---^^^---x--x--xxx-----------|



e]---------------------------------------------|
b]---------------------------------------------|
g]---------------------------------------------|
d]-000-333-555-/-8-7-5----000-333-555--8--7----|
a]-000-333-555-/-8-7-5----000-333-555--8--7----|
d]-000-333-555-/-8-7-5----000-333-555--8--7----|



e]---------------------------------------------|
b]---------------------------------------------|
g]---------------------------------------------|
d]-000-333-555-/-8-7-5----000-333-555--8--7----|
a]-000-333-555-/-8-7-5----000-333-555--8--7----|
d]-000-333-555-/-8-7-5----000-333-555--8--7----|



e]---------------------------------------------|
b]---------------------------------------------|
g]---------------------------------------------|
d]-000-333-555-/-8-7-5----000-333-555--8--7----|
a]-000-333-555-/-8-7-5----000-333-555--8--7----|
d]-000-333-555-/-8-7-5----000-333-555--8--7----|


                                                      Guitar 2 Clean Tone
e]--------------------------------------------- e]----------------------------|
b]--------------------------------------------- b]----------------------------|
g]--------------------------------------------- g]----------------------------|
d]-000-333-555-/-8-7-5----000-333-555--8--7---- d]-12-12-12-12-12-12-12-12-12-|
a]-000-333-555-/-8-7-5----000-333-555--8--7---- a]----------------------------|
d]-000-333-555-/-8-7-5----000-333-555--8--7---- d]----------------------------|


  Bass Line and Keyboard  Keyboard Order: 57757575

e]---------------------------------------------|
b]---------------------------------------------|
g]----------------------5--------------------7-|
d]---------------------------------------------|
a]---------------------------------------------|
d]--0---3---5----8-7-5-----0---3---5---8--7----| Bass 4 Times



e]---------------------------------------------|
b]---------------------------------------------|
g]---------------------------------------------|
d]-000-333-555-/-8-7-5----000-333-555--8--7----|
a]-000-333-555-/-8-7-5----000-333-555--8--7----|
d]-000-333-555-/-8-7-5----000-333-555--8--7----|



e]---------------------------------------------|
b]---------------------------------------------|
g]---------------------------------------------|
d]-000-333-555-/-8-7-5----000-333-555--8--7----|
a]-000-333-555-/-8-7-5----000-333-555--8--7----|
d]-000-333-555-/-8-7-5----000-333-555--8--7----|



e]---------------------------------------------|
b]---------------------------------------------|
g]---------------------------------------------|
d]-000-333-555-/-8-7-5----000-333-555--8--7----|
a]-000-333-555-/-8-7-5----000-333-555--8--7----|
d]-000-333-555-/-8-7-5----000-333-555--8--7----|


                                                      Guitar 2 Clean Tone
e]--------------------------------------------- e]----------------------------|
b]--------------------------------------------- b]----------------------------|
g]--------------------------------------------- g]----------------------------|
d]-000-333-555-/-8-7-5----000-333-555--8--7---- d]-12-12-12-12-12-12-12-12-12-|
a]-000-333-555-/-8-7-5----000-333-555--8--7---- a]----------------------------|
d]-000-333-555-/-8-7-5----000-333-555--8--7---- d]----------------------------|



e]---------------------------------------------|
b]---------------------------------------------|
g]-----------------------------------Down------|
d]-{5\}-00000-8-\-55555-7-\-33333-*7-33333-*5--|
a]-{5\}-00000-8-\-55555-7-\-33333-*7-33333-*5--|
d]-{5\}-00000-8-\-55555-7-\-33333-*7-33333-*5--|



e]---------------------------------------------|
b]---------------------------------------------|
g]------------------------------Down-----------|
d]-00000-8-\-55555-7-\-33333-*7-33333-*5-------|
a]-00000-8-\-55555-7-\-33333-*7-33333-*5-------|
d]-00000-8-\-55555-7-\-33333-*7-33333-*5-------|



Gtr 2  e]-00000-----55555-----33333----33333----------|
Gtr 2  b]-00000-----55555-----33333----33333----------|
       g]------------------------------Down-----------|
Gtr 1  d]-00000-8-\-55555-7-\-33333-*7-33333-*5-------|
Gtr 1  a]-00000-8-\-55555-7-\-33333-*7-33333-*5-------|
Gtr 1  d]-00000-8-\-55555-7-\-33333-*7-33333-*5-------|



Gtr 2  e]-00000-----55555-----33333----33333----------|
Gtr 2  b]-00000-----55555-----33333----33333----------|
       g]------------------------------Down-----------|
Gtr 1  d]-00000-8-\-55555-7-\-33333-*7-33333-*5-------|
Gtr 1  a]-00000-8-\-55555-7-\-33333-*7-33333-*5-------|
Gtr 1  d]-00000-8-\-55555-7-\-33333-*7-33333-*5-------|



e]-00000--8--55555--7--33333--7--33333--|
b]-00000-----55555-----33333-----33333--|
g]--------------------------------------|
d]--------------------------------------|
a]--------------------------------------|
d]--------------------------------------|



e]-00000--8--55555--7--33333--7--33333--|
b]-00000-----55555-----33333-----33333--|
g]--------------------------------------|
d]--------------------------------------|
a]--------------------------------------|
d]--------------------------------------|



e]----------------------------|
b]----------------------------|
g]----------------------------|
d]-000-333-555-/-8-7-5--------|
a]-000-333-555-/-8-7-5--------|
d]-000-333-555-/-8-7-5--------|



e]----------------------------|
b]----------------------------|
g]----------------------------|
d]-000-333-555-/-8--7---------|
a]-000-333-555-/-8--7---------|
d]-000-333-555-/-8--7---------|



e]----------------------------|
b]----------------------------|
g]----------------------------|
d]-000-333-555-/-8-7-5--------|
a]-000-333-555-/-8-7-5--------|
d]-000-333-555-/-8-7-5--------|



e]----------------------------|
b]----------------------------|
g]----------------------------|
d]-000-333-555-/-8--7---------|
a]-000-333-555-/-8--7---------|
d]-000-333-555-/-8--7---------|

Join The Undead Army
Tap to rate this tab
# A B C D E F G H I J K L M N O P Q R S T U V W X Y Z