Song name
# A B C D E F G H I J K L M N O P Q R S T U V W X Y Z

Hollywood Undead - Mother Murder tab

-----------------------------------------------------------------------------
                               Mother Murder
-----------------------------------------------------------------------------
This is my first tab so it may not be that good.  I did it by ear with a little help 
from a friend so enjoy.

Tunning: Drop D
D A D G B e

Intro:

e|-----15------13------|-15--18--20--18-|-13--15---------|
B|-13------16------13--|----------------|---------13-----|
G|---------------------|----------------|----------------|
D|---------------------|----------------|----------------|
A|---------------------|----------------|----------------|
D|---------------------|----------------|----------------|


Verse/Chorus (Pretty much rest of the song)

     Strum           Singles
e|------------|-------------------|
B|------------|-------------------|
G|-5--8-------|-10----------------|
D|-5--8--6----|-10--11--10--6-----|
A|-3--6--6----|-8---11--10--6-----|
D|-------6----|-----11--10--6-----|
Tap to rate this tab
# A B C D E F G H I J K L M N O P Q R S T U V W X Y Z