Song name
# A B C D E F G H I J K L M N O P Q R S T U V W X Y Z

Hollywood Undead - Coming Back Down tab

-------------------------------------------------------------------------------
			     COMING BACK DOWN - Hollywood Undead
-------------------------------------------------------------------------------
Original tab by: welshmark96
Email: danieltjames@gmail.com

New version: Added chorus.
By: QuincyDK
kosterkont@hotmail.com

Tuning:standard (EADGBe)

this is pretty much it for the whole song.

     G        D       A       Bm
e|---------------------------------------------------------------------------|
B|----3-------3-------3-------3----------------------------------------------|
G|--0---0---2---2---2---2---4---4--------------------------------------------|
D|--------0------------------------------------------------------------------|
A|----------------0-------2--------------------------------------------------|
E|3--------------------------------------------------------------------------|

Chorus:
e|---------------------------------------------------------------------------|
B|---------------------------------------------------------------------------|
G|---------------------------------------------------------------------------|
D|-----5---------10--------7----------9--------------------------------------|
A|-----5---------12--------5----------7--------------------------------------|
E|-----3---------12--------5----------7--------------------------------------|
Note 1: You can slide between the notes. On the original record this is what the 
guitarist does but it sounds nice this way too. Pick your favorite option.
Note 2: While the chorus is being played, the first part can still be heard. This means 
it's either an overdub or 2 guitars.



You could just play the chords too. It is what you want to do. (this replaces everything 
BUT the chorus!

    G (x4)   D (x4)   A (x4)   Bm (x4)
e|--3--------2--------0--------2---------------------------------------------|
B|--3--------3--------3--------3---------------------------------------------|
G|--0--------2--------2--------4---------------------------------------------|
D|--0--------0--------2--------4---------------------------------------------|
A|--2-----------------0--------2---------------------------------------------|
E|--3------------------------------------------------------------------------|
Tap to rate this tab
 
# A B C D E F G H I J K L M N O P Q R S T U V W X Y Z