Song name
# A B C D E F G H I J K L M N O P Q R S T U V W X Y Z

Hollywood Undead - Hear Me Now tab

                         Hear Me Now by Hollywood Undead

Tuning: Drop C (C G C F A D) 

YouTube Guitar Cover: http://www.youtube.com/watch?v=3DW_InlTnbA

(the intro is played with keyboard only but you can play guitar with it)


D-----------------------------|---------------------------------|
A-----------------------------|---------------------------------|
F-----------------------------|---------------------------------|
C---------X-X---X-X-----------|----X----X------X-X-X-X----------|
G---------X-X---X-X-----------|----X----X------X-X-X-X----------|
C---------X-X---X-X-----------|----X----X------X-X-X-X----------|

				  (Intro)

D-----------------------------------|-----------------------------------|
A-----------------------------------|-----------------------------------|
F------------------6----------------|------------------7----------------|
C-------4-----4--7---7--4-----------|-------4-----4--7---7--4-----------|
G-----4---0-4-------------4---------|-----4---0-4-------------4---------|
C-4-7-----------------------7-4-7-6-|-4-7-----------------------7-4-7-6-|

D-----------------------------------|-----------------------------------|
A-----------------------------------|-----------------------------------|
F------------------6----------------|------------------8----------------|
C-------4-----4--7---7--4-----------|-------4-----4--7---7--4-----------|
G-----4---0-4-------------4---------|-----4---0-4-------------4---------|
C-4-7-----------------------7-4-7-6-|-4-7-----------------------7-4-----|

				(1st Verse)

D---------------------------------|---------------------------------|
A---------------------------------|---------------------------------|
F---------------------------------|---------------------------------|
C---------------------------------|----------7~---------------------|
G------4~-------------------------|----------5~---------------------|
C------4~-------------------------|---------------------------------|

D---------------------------------|---------------------------------|
A---------------------------------|---------------------------------|
F---------------------------------|---------------------------------|
C---------------------------------|---------------------------------|
G------7~-------------------------|----------2~---------------------|
C------7~-------------------------|----------2~---------------------| 

(Repeat 3 times)

                               (1st Chorus)

D-----------------------------------|-----------------------------------|
A-----------------------------------|-----------------------------------|
F------------------6----------------|------------------7----------------|
C-------4-----4--7---7--4-----------|-------4-----4--7---7--4-----------|
G-----4---0-4-------------4---------|-----4---0-4-------------4---------|
C-4-7-----------------------7-4-7-6-|-4-7-----------------------7-4-7-6-|

D-----------------------------------|-----------------------------------|
A-----------------------------------|-----------------------------------|
F------------------6----------------|------------------8----------------|
C-------4-----4--7---7--4-----------|-------4-----4--7---7--4-----------|
G-----4---0-4-------------4---------|-----4---0-4-------------4---------|
C-4-7-----------------------7-4-7-6-|-4-7-----------------------7-4-7-6-|

D-----------------------------------|-----------------------------------|
A-----------------------------------|-----------------------------------|
F------------------6----------------|------------------7----------------|
C-------4-----4--7---7--4-----------|-------4-----4--7---7--4-----------|
G-----4---0-4-------------4---------|-----4---0-4-------------4---------|
C-4-7-----------------------7-4-7-6-|-4-7-----------------------7-4-7-6-|

D-----------------------------------|-----------------------------------|
A-----------------------------------|-----------------------------------|
F------------------6----------------|------------------8----------------|
C-------4-----4--7---7--4-----------|-------4-----4--7---7--4-----------|
G-----4---0-4-------------4---------|-----4---0-4-------------4---------|
C-4-7-----------------------7-4-7-6-|-4-7-----------------------7-4-----|

D-----------------------------------|-----------------------------------|
A-----------------------------------|-----------------------------------|
F------------------6----------------|------------------8----------------|
C-------4-----4--7---7--4-----------|-------4-----4--7---7--4-----------|
G-----4---0-4-------------4---------|-----4---0-4-------------4---------|
C-4-7-----------------------7-4-7-6-|-4-7-----------------------7-4-----|

				(2nd Verse)

D---------------------------------|---------------------------------|
A---------------------------------|---------------------------------|
F---------------------------------|---------------------------------|
C---------------------------------|----------7~---------------------|
G------4~-------------------------|----------5~---------------------|
C------4~-------------------------|---------------------------------|

D---------------------------------|---------------------------------|
A---------------------------------|---------------------------------|
F---------------------------------|---------------------------------|
C---------------------------------|---------------------------------|
G------7~-------------------------|----------2~---------------------|
C------7~-------------------------|----------2~---------------------| 

(Repeat 3 times)
				

                              (2nd Chorus)

D-----------------------------------|-----------------------------------|
A-----------------------------------|-----------------------------------|
F------------------6----------------|------------------7----------------|
C-------4-----4--7---7--4-----------|-------4-----4--7---7--4-----------|
G-----4---0-4-------------4---------|-----4---0-4-------------4---------|
C-4-7-----------------------7-4-7-6-|-4-7-----------------------7-4-7-6-|

D-----------------------------------|-----------------------------------|
A-----------------------------------|-----------------------------------|
F------------------6----------------|------------------8----------------|
C-------4-----4--7---7--4-----------|-------4-----4--7---7--4-----------|
G-----4---0-4-------------4---------|-----4---0-4-------------4---------|
C-4-7-----------------------7-4-7-6-|-4-7-----------------------7-4-7-6-|

D-----------------------------------|-----------------------------------|
A-----------------------------------|-----------------------------------|
F------------------6----------------|------------------7----------------|
C-------4-----4--7---7--4-----------|-------4-----4--7---7--4-----------|
G-----4---0-4-------------4---------|-----4---0-4-------------4---------|
C-4-7-----------------------7-4-7-6-|-4-7-----------------------7-4-7-6-|

D-----------------------------------|-----------------------------------|
A-----------------------------------|-----------------------------------|
F------------------6----------------|------------------8----------------|
C-------4-----4--7---7--4-----------|-------4-----4--7---7--4-----------|
G-----4---0-4-------------4---------|-----4---0-4-------------4---------|
C-4-7-----------------------7-4-7-6-|-4-7-----------------------7-4-----|

			      (3rd Verse)

D---------------------------------|---------------------------------|
A---------------------------------|---------------------------------|
F---------------------------------|---------------------------------|
C---------------------------------|----------7~---------------------|
G------9~-------------------------|----------5~---------------------|
C------9~-------------------------|---------------------------------|

D---------------------------------|---------------------------------|
A---------------------------------|---------------------------------|
F---------------------------------|---------------------------------|
C---------------------------------|---------------------------------|
G------7~-------------------------|----------2~---------------------|
C------7~-------------------------|----------2~---------------------| 

(Repeat 2 times)
    				

				(Interlude)

D-----------------------------------|-----------------------------------|
A-----------------------------------|-----------------------------------|
F------------------6----------------|------------------7----------------|
C-------4-----4--7---7--4-----------|-------4-----4--7---7--4-----------|
G-----4---0-4-------------4---------|-----4---0-4-------------4---------|
C-4-7-----------------------7-4-7-6-|-4-7-----------------------7-4-----|

				(Final Chorus)

D-----------------------------------|-----------------------------------|
A-----------------------------------|-----------------------------------|
F------------------6----------------|------------------8----------------|
C-------4-----4--7---7--4-----------|-------4-----4--7---7--4-----------|
G-----4---0-4-------------4---------|-----4---0-4-------------4---------|
C-4-7-----------------------7-4-7-6-|-4-7-----------------------7-4-----|


D---------------------------------|---------------------------------|
A---------------------------------|---------------------------------|
F---------------------------------|---------------------------------|
C---------------------------------|----------7~---------------------|
G------4~-------------------------|----------5~---------------------|
C------4~-------------------------|---------------------------------|

									(Repeat 2 times)

D---------------------------------|---------------------------------|
A---------------------------------|---------------------------------|
F---------------------------------|---------------------------------|
C---------------------------------|---------------------------------|
G------7~-------------------------|----------2~---------------------|
C------7~-------------------------|----------2~---------------------| 

D-----------------------------------|-----------------------------------|
A-----------------------------------|-----------------------------------|
F------------------6----------------|------------------7----------------|
C-------4-----4--7---7--4-----------|-------4-----4--7---7--4-----------|
G-----4---0-4-------------4---------|-----4---0-4-------------4---------|
C-4-7-----------------------7-4-7-6-|-4-7-----------------------7-4-7-6-|

D-----------------------------------|-----------------------------------|
A-----------------------------------|-----------------------------------|
F------------------6----------------|------------------8----------------|
C-------4-----4--7---7--4-----------|-------4-----4--7---7--4-----------|
G-----4---0-4-------------4---------|-----4---0-4-------------4---------|
C-4-7-----------------------7-4-7-6-|-4-7-----------------------7-4-----|


D--------------------------------|
A--------------------------------|
F--------------------------------|
C--------------------------------|
G------4-------------------------|
C------4-------------------------|
Tap to rate this tab
# A B C D E F G H I J K L M N O P Q R S T U V W X Y Z