Song name
# A B C D E F G H I J K L M N O P Q R S T U V W X Y Z

Hollywood Undead - Tendencies tab

first Intro
E--------------------------------------------|
B--------------------------------------------|
G--------------------------------------------|
D-5--5-5--5--5-5--5-5--5--5-5--5--5-5--7-7---|2x
A-3--3-3--3--3-3--3-3--3--3-3--3--3-3--5-5---|
D--------------------------------------------|
PM   * *     * *    *     * *     * *

intro
E-----------------------------|
B-----------------------------|
G-----------------------------|
D-----------------------------|4x
A-0-0--3-3--5--5-5--8-7-8-5---|
D-0-0--3-3--5--5-5--8-7-8-5---|

No guitar during verses

chorus
E-------------------------|
B-------------------------|
G-------------------------|
D-------------------------|4x
A-0-0--3-3-5-5--8-7-8-5---|
D-0-0--3-3-5-5--8-7-8-5---|

Bridge
E------------------------------|
B------------------------------|
G------------------------------|
D------------------------------|4x
A-0-0--3-5-7-8-5-0--0-0--0-0---|
D-0-0--3-5-7-8-5-0--0-0--0-0---|
There's a black

E------------------------------------------------|
B------------------------------------------------|
G------------------------------------------------|
D------------------------------------------------|2x
A-0-0-0--0-0-0--5-5-5-5--8-8-8-8--7--7-7-7-7-----|
D-0-0-0--0-0-0--5-5-5-5--8-8-8-8--7--7-7-7-7-----|
in the land of the weak
Tap to rate this tab
# A B C D E F G H I J K L M N O P Q R S T U V W X Y Z