Song name
# A B C D E F G H I J K L M N O P Q R S T U V W X Y Z

Hollywood Undead - Levitate tab

----------------------------------------------------------------------------
                             Levitate - Hollywood Undead
----------------------------------------------------------------------------Tabbed by:Dead17Pool
Email:dead17pool@yahoo.ca

I love this song, so I decided to tab this out, i'm not 100% sure about some of these
parts, but hey? I did my best. This is the Rock Mix version of the song, and easy to play,
took me a day to learn this song by ear. Please feel free to comment what I did wrong, 
so I can make changes. Thanks. Hollywood Undead rules! \m/

Tuning:E-A-D-G-B-e
guitar 1
e|------------------------------------------------|
B|------------------------------------------------|
G|------------------------------------------------|
D|17-17-17-17\13-13-13-13/15-15-15-15\10-10-10-10-|
A|x--x--x--x--x--x--x--x--x--x--x--x--x--x--x--x--|
E|15-15-15-15\11-11-11-11/13-13-13-13\8--8--8--8--| [intro/verse]

guitar 2 - Verse
e|--------------------|--------------------|
B|--------------------|--------------------|
G|--------------------|--------------------|
D|-5~---8~---7~---5~--|--5~--8~---7~---2~--| [2x]
A|--------------------|--------------------|
E|--------------------|--------------------|

guitar 1 - Chorus
e|---------------------------------------------|
B|---------------------------------------------|
G|------------8-8-8-8---10101010---5-5-5-5-----|
D|------------6-6-6-6---8-8-8-8----3-3-3-3-----|
A|--5-5-5-5------------------------------------|
E|--3-3-3-3------------------------------------|

guitar 2 - Chorus
e|------------------------------------------------------------|
B|------------------------------------------------------------|
G|-1212121212/1515151515\1010101010\5-5-5-5-5-----------------|
D|-x-x-x-x-x--x-x-x-x-x--x-x-x-x-x--x-x-x-x-x-----------------|
A|-1010101010/1313131313\8-8-8-8-8\-3-3-3-3-3-----------------|
E|------------------------------------------------------------|

go back to Verse, Chorus, Bridge is exactly the same as the verse, guitar 2 plays the
verse again while guitar 1 plays the intro/verse part. Get it?
okay, enjoy! ...

************************************

| /   slide up
| \   slide down

************************************
Tap to rate this tab
 
# A B C D E F G H I J K L M N O P Q R S T U V W X Y Z