Song name
# A B C D E F G H I J K L M N O P Q R S T U V W X Y Z

Hollywood Undead - Paradise Lost tab

Paradise Lost
Hollywood Undead 
Tabbed by: misfits750@hotmail.com 


This is how I play this song.

Tuning: Drop D


Verse 1  
e|-------------------------------------------------------------------|
B|-------------------------------------------------------------------| x4 
G|-------------------------------------------------------------------|
D|-----8---8---------10----10----------12-------12-------12----12----|
A|---8---8---8----10----10----10----12-------12-------12----------12-|
D|-8-----------10----------------12-------12-------12-------12-------|


Chorus 
e|-------------------------------------------------------------------|
B|-------------------------------------------------------------------| x2 
G|-------------------------------------------------------------------|
D|-8-8-8-8-8-8-10-10-10-10-10-10-12-12-12-12-12-12-12-12-12-12-12-12-|
A|-8-8-8-8-8-8-10-10-10-10-10-10-12-12-12-12-12-12-12-12-12-12-12-12-|
D|-8-8-8-8-8-8-10-10-10-10-10-10-12-12-12-12-12-12-12-12-12-12-12-12-|
PM                                  .  .     .  .     .  .     .  . 


Verse 2  
e|-------------------------------------------------------------------|
B|-------------------------------------------------------------------| x4 
G|-------------------------------------------------------------------|
D|-----8---8---------10----10----------12-------12-------12----12----|
A|---8---8---8----10----10----10----12-------12-------12----------12-|
D|-8-----------10----------------12-------12-------12-------12-------|


Chorus 
e|-------------------------------------------------------------------|
B|-------------------------------------------------------------------| x2 
G|-------------------------------------------------------------------|
D|-8-8-8-8-8-8-10-10-10-10-10-10-12-12-12-12-12-12-12-12-12-12-12-12-|
A|-8-8-8-8-8-8-10-10-10-10-10-10-12-12-12-12-12-12-12-12-12-12-12-12-|
D|-8-8-8-8-8-8-10-10-10-10-10-10-12-12-12-12-12-12-12-12-12-12-12-12-|
PM                                  .  .     .  .     .  .     .  . 


Bridge 
e|-----------------------------------------------|
B|-----------------------------------------------| x4 
G|-----------------------------------------------|
D|-0-0-0-0-0-0-5-5-5-5-5-5-3-3-3-3-3-7-7-7-7-7-7-|
A|-0-0-0-0-0-0-5-5-5-5-5-5-3-3-3-3-3-7-7-7-7-7-7-|
D|-0-0-0-0-0-0-5-5-5-5-5-5-3-3-3-3-3-7-7-7-7-7-7-|
PM . . . . . . . . . . . . . . . . . . . . . . .


Verse 3                                        x2
e|-----------------------------------------------|-------------|
B|-----------------------------------------------|-------------|
G|-----------------------------------------------|-------------|
D|-0-0-0-0-0-0-5-5-5-5-5-5-3-3-3-3-3-7-7-7-7-7-7-|-7-7-7-7-7-7-|
A|-0-0-0-0-0-0-5-5-5-5-5-5-3-3-3-3-3-7-7-7-7-7-7-|-7-7-7-7-7-7-|
D|-0-0-0-0-0-0-5-5-5-5-5-5-3-3-3-3-3-7-7-7-7-7-7-|-7-7-7-7-7-7-|


Final Chorus 
e|-------------------------------------------------------------------|
B|-------------------------------------------------------------------| x4 
G|-------------------------------------------------------------------|
D|-8-8-8-8-8-8-10-10-10-10-10-10-12-12-12-12-12-12-12-12-12-12-12-12-|
A|-8-8-8-8-8-8-10-10-10-10-10-10-12-12-12-12-12-12-12-12-12-12-12-12-|
D|-8-8-8-8-8-8-10-10-10-10-10-10-12-12-12-12-12-12-12-12-12-12-12-12-|
PM                                  .  .     .  .     .  .     .  .

e|----------------------------------------|
B|----------------------------------------| x2 
G|----------------------------------------|
D|-12-12-12-12-12-12-12-12-12-12-12-12-12-|
A|-12-12-12-12-12-12-12-12-12-12-12-12-12-|
D|-12-12-12-12-12-12-12-12-12-12-12-12-12-|
PM    .  .     .  .     .  .     
Tap to rate this tab
 
# A B C D E F G H I J K L M N O P Q R S T U V W X Y Z