Song name
# A B C D E F G H I J K L M N O P Q R S T U V W X Y Z

Hollywood Undead - Scene tab

Scene for Dummies
Hollywood Undead 
Tabbed by: misfits750@hotmail.com 


Personally, I play guitar 1 during choruses and guitar 2 during verses. 


Guitar 1 
e|---------------------------------------------|
B|-10-10-12-13-9-9-12-13-------13-12-----15-13-|
G|-----------------------10-10-------9-9-------|
D|---------------------------------------------|
A|---------------------------------------------|
E|---------------------------------------------|


Guitar 2 
e|----------------------------------|
B|----------------------------------|
G|----------------------------------|
D|----------------------------------|
A|----------------------------------|
E|-5-5-7-8-4-4-7-8-1-1-8-7-0-0-10-8-|


Bass
G|----------------------------------|
D|----------------------------------|
A|----------------------------------|
E|-5-------4-------1-------0--------|
Tap to rate this tab
 
# A B C D E F G H I J K L M N O P Q R S T U V W X Y Z