Song name
# A B C D E F G H I J K L M N O P Q R S T U V W X Y Z

Hollywood Undead - The Natives tab

The Natives 
Hollywood Undead 
Tabbed by: misfits750@hotmail.com 


Chorus 
e|------------------------------------|
B|------------------------------------|
G|-5-5-5-5----------------------------|
D|-5-5-5-5--5-5-5-5--6-6-6-6--8-8-8-8-|
A|-3-3-3-3--5-5-5-5--6-6-6-6--8-8-8-8-|
E|----------3-3-3-3--4-4-4-4--6-6-6-6-|


Verse 
e|---------------------------------------|
B|---------------------------------------|
G|----5----5-----------------------------|
D|----5----5--5--5----5--6--6----6--8--8-|
A|----3----3--5--5----5--6--6----6--8--8-|
E|------------3--3----3--4--4----4--6--6-|
PM    .    .          .          .



For those who cant figure out the timing, Ive put it here: 

 
Chorus 
e|------------------------------------|
B|------------------------------------|
G|-5-5-5-5----------------------------|
D|-5-5-5-5--5-5-5-5--6-6-6-6--8-8-8-8-|
A|-3-3-3-3--5-5-5-5--6-6-6-6--8-8-8-8-|
E|----------3-3-3-3--4-4-4-4--6-6-6-6-|
   1 & 2 &  3 & 4 &  1 & 2 &  3 & 4 & 



Verse 
e|----------------------------------------|
B|----------------------------------------|
G|----5---5-------------------------------|
D|----5---5--5--5---5--6--6----6--8--8----|
A|----3---3--5--5---5--6--6----6--8--8----|
E|-----------3--3---3--4--4----4--6--6----|
PM    .   .         .          .
    1 & 2 &  3  & 4 &  1  &  2 &  3  &  4 & 
Tap to rate this tab
# A B C D E F G H I J K L M N O P Q R S T U V W X Y Z