Song name
# A B C D E F G H I J K L M N O P Q R S T U V W X Y Z

Hollywood Undead - El Urgencia tab

El Urgencia 
Hollywood Undead 
Tabbed by : misfits750@hotmail.com 

This is how I play this song. 

Tuning : Drop D 


Intro / Chorus 
e|--------------|--------------|--------------|------------|
B|--------------|--------------|--------------|------------|
G|-7-----10--10-|-7-----10--10-|-7-----10--10-|-7----------|
D|-7-----10--10-|-7-----10--10-|-7-----10--10-|-7--5--8--7-|
A|-5-----8---8--|-5-----8---8--|-5-----8---8--|-5--5--8--7-|
D|--------------|--------------|--------------|----5--8--7-|


Verse / Bridge  
e|-----|-----|-----|-----|
B|-----|-----|-----|-----|
G|-7---|-7---|-7---|-7---|
D|-7---|-7---|-7---|-7---|
A|-5---|-5---|-5---|-5---|
D|-----|-----|-----|-----|
Tap to rate this tab
# A B C D E F G H I J K L M N O P Q R S T U V W X Y Z