Song name
# A B C D E F G H I J K L M N O P Q R S T U V W X Y Z

Hollywood Undead - Mother Murder tab

-------------------------------------------------------------------------------
                             Mother Murder - Hollywood Undead
-------------------------------------------------------------------------------
Tabbed by: LostLegion
Email: cm.duffy@hotmail.com

Tuning: Drop D

This is pretty much all of the song I could tab. I will try figure other bits of it, and 
if you have any corrections please let me know :)

INTRO:

e|---20------------------------------------20--------------------------------|
B|------20-18-20---------------------18-20----20-18-20-----------------------|
G|---------------17------------------------------------17--------------------|
D|---------------------------------------------------------------------------|
A|---------------------------------------------------------------------------|
D|---------------------------------------------------------------------------|

Use this part when necessary in the song.
e|---------------------------------------------------------------------------|
B|---------------------------------------------------------------------------|
G|---------------------------------------------------------------------------|
D|---3/11-10--6--3-----------------------------------------------------------|
A|---3/11-10--6--3-----------------------------------------------------------|
D|---3/11-10--6--3-----------------------------------------------------------|


************************************

| /   slide up
| \   slide down
| h   hammer-on
| p   pull-off
| ~   vibrato
| +   harmonic
| x   Mute note
| b   Bend
| pb  Pre-bend
| br  Bend release
| pbr Pre-bend release
| brb Bend release bend

************************************
Tap to rate this tab
 
# A B C D E F G H I J K L M N O P Q R S T U V W X Y Z