Song name
# A B C D E F G H I J K L M N O P Q R S T U V W X Y Z

Hollywood Undead - Circles tab

couple of ways to play this i'll list a bunch of them
Way 1:
e|-----0-------0-------1-------1-------0-------0-------0-------0---|
B|---1---1---1---1---1---1---1---1---1---1---1---1---0---0---0-----|
G|-2-------2-------2-------2-------0-------0-------1-------1-------|
D|-----------------------------------------------------------------|
A|-----------------------------------------------------------------|
E|-----------------------------------------------------------------|
Way 2:
e|-----------------------------------------------------------------|
B|-----------------------------------------------------------------|
G|-2-5-9-5-2-5-9-5-2-5-10-5-2-5-10-5-0-5-9-5-0-5-9-5-1-4-9-4-1-4-9-|
D|-----------------------------------------------------------------|
A|-----------------------------------------------------------------|
E|-----------------------------------------------------------------|
Way 3:
e|-----------------------------------------------------------------|
B|-----5-------5-------6-------6-------5-------5-------5-------5---|
G|---5---5---5---5---5---5---5---5---5---5---5---5---4---4---4-----|
D|-7-------7-------7-------7-------5-------5-------6-------6-------|
A|-----------------------------------------------------------------|
E|-----------------------------------------------------------------|
Way 4:
e|-------------------------------------------------------------------|
B|-------------------------------------------------------------------|
G|-------------------------------------------------------------------|
D|-7-10-14-10-7-10-14-10-7-10-15-10-7-10-15-10-5-10-14-10-5-10-14-10-|
A|-------------------------------------------------------------------|
E|-------------------------------------------------------------------|
Way 4 cont.:
e|-----------------|
B|-----------------|
G|-----------------|
D|-6-9-14-9-6-9-14-|
A|-----------------|
E|-----------------|
Way 5:
e|------------------------------------------------------------------------|
B|------------------------------------------------------------------------|
G|-------9----------9----------10----------10----------9----------9-------|
D|----10---10----10---10----10----10----10----10----10---10----10---10----|
A|-12---------12---------12----------12----------10---------10---------11-|
E|------------------------------------------------------------------------|
Way 5 cont.:
e|--------------|
B|--------------|
G|---9--------9-|
D|-9---9----9---|
A|-------11-----|
E|--------------|
Way 6:
e|-------------------------------------------------------------------------|
B|-------------------------------------------------------------------------|
G|-------------------------------------------------------------------------|
D|-------------------------------------------------------------------------|
A|-12-15-19-15-12-15-19-15-12-15-20-15-12-15-20-15-10-15-19-15-10-15-19-15-|
E|-------------------------------------------------------------------------|
Way 6 cont.:
e|----------------------|
B|----------------------|
G|----------------------|
D|----------------------|
A|-11-14-19-14-11-14-19-|
E|----------------------|
Tap to rate this tab
# A B C D E F G H I J K L M N O P Q R S T U V W X Y Z