Song name
# A B C D E F G H I J K L M N O P Q R S T U V W X Y Z

Hollywood Undead - Up In Smoke tab

While there is no real guitar part to this song, this is one i improvised. it's super 
easy. Drop D tuning. Enjoy :)

Intro: (Follow the bass rhythm to get the timing).
e----------------------------------|
B----------------------------------|
G--------------------------2-2-2---|
D-----0-0-0--3-3-3--5-5-5--2-2-2---|  x2
A-----0-0-0--3-3-3--5-5-5--0-0-0---|
D-----0-0-0--3-3-3--5-5-5----------|

Chorus:
e----------------------------------|
B----------------------------------|
G----------------------------------|
D-----0-0-0--3-3-3--5-5-5--0-0-0---|  x4
A-----0-0-0--3-3-3--5-5-5--0-0-0---|
D-----0-0-0--3-3-3--5-5-5--0-0-0---|

Verse: (Charlie)(If you don't like the way this sounds, just play the Intro)
e----------------------------------|
B----------------------------------|
G----------------------------------|
D-----0-0-0--5-3-5--7-5-7--0-0-0---|  x4
A-----0-0-0--5-3-5--7-5-7--0-0-0---|
D-----0-0-0--5-3-5--7-5-7--0-0-0---|

Pre Chorus
e----------------------------------|
B----------------------------------|
G----------------------------------|
D-----0---0---5-3-5---7-5-7--0---0-|  x4
A-------3----------------------3---|
D----------------------------------|

Chorus:
e----------------------------------|
B----------------------------------|
G----------------------------------|
D-----0-0-0--3-3-3--5-5-5--0-0-0---|  x4
A-----0-0-0--3-3-3--5-5-5--0-0-0---|
D-----0-0-0--3-3-3--5-5-5--0-0-0---|

Verse 2:(JDog)
e----------------------------------|
B----------------------------------|
G----------------------------------|
D-----0---0---5-3-5---7-5-7--0---0-| x1
A-------3----------------------3---|
D----------------------------------|

e----------------------------------|
B----------------------------------|
G----------------------------------|
D-----0-0-0--5-3-5--7-5-7--0-0-0---|  x3
A-----0-0-0--5-3-5--7-5-7--0-0-0---|
D-----0-0-0--5-3-5--7-5-7--0-0-0---|

Pre Chorus
e----------------------------------|
B----------------------------------|
G----------------------------------|
D-----0---0---5-3-5---7-5-7--0---0-|  x4
A-------3----------------------3---|
D----------------------------------|

Chorus:
e----------------------------------|
B----------------------------------|
G----------------------------------|
D-----0-0-0--3-3-3--5-5-5--0-0-0---|  x4
A-----0-0-0--3-3-3--5-5-5--0-0-0---|
D-----0-0-0--3-3-3--5-5-5--0-0-0---|

Verse 3 (FunnyMan)
e----------------------------------|
B----------------------------------|
G----------------------------------|
D-----0---0---5-3-5---7-5-7--0---0-| x4
A-------3----------------------3---|
D----------------------------------|

This next part don't play anything at all untill the Chorus
Chorus:
e----------------------------------|
B----------------------------------|
G----------------------------------|
D-----0-0-0--3-3-3--5-5-5--0-0-0---|  x4
A-----0-0-0--3-3-3--5-5-5--0-0-0---|
D-----0-0-0--3-3-3--5-5-5--0-0-0---|

Outro:(Listen closely for timming)
e----------------------------------|
B----------------------------------|
G----------------------------------|
D---12--10--77--5~---55-3--0~------|x4
A----------------------------------|
D----------------------------------|  Then last note is open on Low D

Email me at jpsh_herro@yahoo.com if you have a better way to play it.
Tap to rate this tab
# A B C D E F G H I J K L M N O P Q R S T U V W X Y Z