Song name
# A B C D E F G H I J K L M N O P Q R S T U V W X Y Z

Hollywood Undead - Outside tab

The 11th track from Hollywood Undead's 3rd album, Notes From The Underground, (in my 
opinion their best album to date). Pretty simple, any corrections welcome but I think it is 
pretty accurate. Enjoy :)

Intro 1:

E|--------------------------------------------------------------|
B|--------------------------------------------------------------|
G|--------------------------------------------------------------| Play 5
D|--------------------8----8-8----8-7---7-7---7-7---7-7-7-7-----| times
A|--10----10-10----10---10-----10-----8-----8-----8-------------|
D|-----12-------12----------------------------------------------|

Intro 2:

E|------------------------------------------------------|
B|------------------------------------------------------|
G|------------------------------------------------------|
D|--5~---5~--8--3~---3~--0~-----------------------------|
A|--5~---5~--8--3~---3~--0~-----------------------------|
D|--5~---5~--8--3~---3~--0~-----------------------------|

Verse:

Palm Mute All Of This:

E|---------------------------------------------------------|
B|---------------------------------------------------------|
G|---------------------------------------------------------|
D|--5-------8------3-----0---------------------------------|
A|--5-x28---8-x4---3-x24-0-x8------------------------------|
D|--5-------8------3-----0---------------------------------|

Chorus: Same as Intro 2

Outro: Same as Intro 1

Thanks. Enjoy Playing :)
Tap to rate this tab
# A B C D E F G H I J K L M N O P Q R S T U V W X Y Z