Song name
# A B C D E F G H I J K L M N O P Q R S T U V W X Y Z

Hollywood Undead - Rain chords

Highlighted       Show chord diagrams
Intro:

e|--3---------3-----3------------3------2-----------2----2-----7-------------|
B|------------------------------------------0--------------------------------|
G|-----0----------------0-----------------------0----------------------------|
D|--------0-----------------0------------------------------------------------|
A|---------------------------------------------------------------------------|
E|--0---------------0-------------------0----------------0-----0-------------|

e|--0--------0----0--------0----2---------2----2---------2-------------------|
B|---------------------------------------------------------------------------|
G|-----0-------------0--------------0--------------0-------------------------|
D|--------0-------------0--------------0--------------0----------------------|
A|---------------------------------------------------------------------------|
E|--0-------------0-------------0--------------0-----------------------------|


Chorus:

Em               D                     G             C
I don't mind, no I don't mind, I don't mind the rain
Em                  D              G               C
Simple things and subtleties, they always stay the same
Em                   D              G                C
I don't mind, that I don't mind, no I don't mind the rain
Em                   D                  G          C
Like a widow's heart, we fall apart and never fade away (fade away)
Tap to rate this tab
 
# A B C D E F G H I J K L M N O P Q R S T U V W X Y Z