Song name
# A B C D E F G H I J K L M N O P Q R S T U V W X Y Z

Hollywood Undead - Rain tab

Rain
Hollywood Undead


Note:

I was planning to tab this song since "Notes From The Underground" was released.
It took me a couple of weeks 'cause it's my first tab and I'm a perfectionist.
I saw that some guys were faster than me with tabbing this song
but -sorry- I don't know to which song they've listened to hear this crap out.
So I'm uploading this anyways.

This version is played by two acoustic guitars just like it is in the official version
but the original has no guitar during the verses so I had the simple idea
that during them one of the guitars simply sweeps the chords (which are correct in this version).

Have fun with an awesome song from an awesome band!

HU for live!




Intro:


Guitar 1:

E | 3---------3----3---------3----2---------2----2--------7------  |
H | -------------------------------------------------------------  |
G | -------------------------------------------------------------  |
D | -------------------------------------------------------------  |
A | -------------------------------------------------------------  |
E | -------------------------------------------------------------  |


Guitar 2:

E | -------------------------------------------------------------  |
H | -------------------------------------------------------------  |
G | -------0--0-----------0--0-----------0--0-------------0------  |
D | 2--------------2--------------0--------------0---------------  |
A | -------------------------------------------------------------  |
E | -------------------------------------------------------------  |




Guitar 1:

E | 0---------0----0---------0----2---------2----2---------------  |
H | -------------------------------------------------------------  |
G | -------------------------------------------------------------  |
D | -------------------------------------------------------------  |
A | -------------------------------------------------------------  |
E | -------------------------------------------------------------  |


Guitar 2:

E | -------------------------------------------------------------  |
H | -------------------------------------------------------------  |
G | -------0--0-----------0--0-----------0--0--------------------  |
D | 2--------------2--------------0--------------0---------------  |
A | -------------------------------------------------------------  |
E | -------------------------------------------------------------  |




Chorus:


    "I don't mind, no I don't mind, I don't mind the rain."

Guitar 1:

E | 3------3--3----2------2--2-------------------0---------------  |
H | ------------------------------3------3--3--------------------  |
G | -------------------------------------------------------------  |
D | -------------------------------------------------------------  |
A | -------------------------------------------------------------  |
E | -------------------------------------------------------------  |


Guitar 2:

E | -------------------------------------------------------------  |
H | -------------------------------------------------------------  |
G | -------0--0-----------0--0-----------0--0--------------------  |
D | 2--------------0-----------------------------2---------------  |
A | ------------------------------3------------------------------  |
E | -------------------------------------------------------------  |




    "The simple things and subtleties, they always stay the same."

Guitar 1:

E | 3------3--3----2------2--2-------------------0---------------  |
H | ------------------------------3------3--3--------------------  |
G | -------------------------------------------------------------  |
D | -------------------------------------------------------------  |
A | -------------------------------------------------------------  |
E | -------------------------------------------------------------  |


Guitar 2:

E | -------------------------------------------------------------  |
H | -------------------------------------------------------------  |
G | -------0--0-----------0--0-----------0--0--------------------  |
D | 2--------------0-----------------------------2---------------  |
A | ------------------------------3------------------------------  |
E | -------------------------------------------------------------  |




    "I don't mind that I don't mind, no I don't mind the rain."

Guitar 1:

E | 3------3--3----5------5--5----3---------7----0---------------  |
H | -------------------------------------------------------------  |
G | -------------------------------------------------------------  |
D | -------------------------------------------------------------  |
A | -------------------------------------------------------------  |
E | -------------------------------------------------------------  |


Guitar 2:

E | -------------------------------------------------------------  |
H | -------------------------------------------------------------  |
G | -------0--0-----------0--0-----------0--0--------------------  |
D | 2--------------2-------------2---------------2---------------  |
A | -------------------------------------------------------------  |
E | -------------------------------------------------------------  |




    "Like a widows heart we fall apart but never fade away, fade away."

Guitar 1:

E | 3------3--3----2------2--2-------------------0---------------  |
H | ------------------------------3------3--3--------------------  |
G | -------------------------------------------------------------  |
D | -------------------------------------------------------------  |
A | -------------------------------------------------------------  |
E | -------------------------------------------------------------  |


Guitar 2:

E | -------------------------------------------------------------  |
H | -------------------------------------------------------------  |
G | -------0--0-----------0--0-----------0--0--------------------  |
D | 2--------------0-----------------------------2---------------  |
A | ------------------------------3------------------------------  |
E | -------------------------------------------------------------  |




Verse 1:


G                                                 Bm
"Run like a child, do you know where I came from? No I don't but I'm singing all the 
same songs.
C                                             Em
I'm alone and you're looking for your anyone. Does it hurt just to know that it's all gone?
G                                             Bm
I can feel the pain in the words that you say hidden in the letters that were written 
with to name.
C                                                       Em
Let me be the hands that you hold to your face cause Id give it all up if I could take 
it away.
G                                              Bm
Buried in red, white, and a side of some blue. Some will die too late, and somebody too soon.
C                                                       Em
If he could come back, we will see what it cost him. We had to lose it all, just to know 
that we lost one.
G                                          Bm
I am just a shape in the shadow of grates. I am just a voice in the choir of saints.
C                                       Em
Oh all the souls that nobody could save and just like a light, we faded away."



Chorus:


    "I don't mind, no I don't mind, I don't mind the rain."

Guitar 1:

E | 3------3--3----2------2--2-------------------0---------------  |
H | ------------------------------3------3--3--------------------  |
G | -------------------------------------------------------------  |
D | -------------------------------------------------------------  |
A | -------------------------------------------------------------  |
E | -------------------------------------------------------------  |


Guitar 2:

E | -------------------------------------------------------------  |
H | -------------------------------------------------------------  |
G | -------0--0-----------0--0-----------0--0--------------------  |
D | 2--------------0-----------------------------2---------------  |
A | ------------------------------3------------------------------  |
E | -------------------------------------------------------------  |




    "The simple things and subtleties, they always stay the same."

Guitar 1:

E | 3------3--3----2------2--2-------------------0---------------  |
H | ------------------------------3------3--3--------------------  |
G | -------------------------------------------------------------  |
D | -------------------------------------------------------------  |
A | -------------------------------------------------------------  |
E | -------------------------------------------------------------  |


Guitar 2:

E | -------------------------------------------------------------  |
H | -------------------------------------------------------------  |
G | -------0--0-----------0--0-----------0--0--------------------  |
D | 2--------------0-----------------------------2---------------  |
A | ------------------------------3------------------------------  |
E | -------------------------------------------------------------  |




    "I don't mind that I don't mind, no I don't mind the rain."

Guitar 1:

E | 3------3--3----5------5--5----3---------7----0---------------  |
H | -------------------------------------------------------------  |
G | -------------------------------------------------------------  |
D | -------------------------------------------------------------  |
A | -------------------------------------------------------------  |
E | -------------------------------------------------------------  |


Guitar 2:

E | -------------------------------------------------------------  |
H | -------------------------------------------------------------  |
G | -------0--0-----------0--0-----------0--0--------------------  |
D | 2--------------2-------------2---------------2---------------  |
A | -------------------------------------------------------------  |
E | -------------------------------------------------------------  |




    "Like a widows heart we fall apart but never fade away, fade away."

Guitar 1:

E | 3------3--3----2------2--2-------------------0---------------  |
H | ------------------------------3------3--3--------------------  |
G | -------------------------------------------------------------  |
D | -------------------------------------------------------------  |
A | -------------------------------------------------------------  |
E | -------------------------------------------------------------  |


Guitar 2:

E | -------------------------------------------------------------  |
H | -------------------------------------------------------------  |
G | -------0--0-----------0--0-----------0--0--------------------  |
D | 2--------------0-----------------------------2---------------  |
A | ------------------------------3------------------------------  |
E | -------------------------------------------------------------  |






    "Fade away, as I fade away..."

Guitar 1:

E | 3---------3----3---------3----2---------2----2--------7------  |
H | -------------------------------------------------------------  |
G | -------------------------------------------------------------  |
D | -------------------------------------------------------------  |
A | -------------------------------------------------------------  |
E | -------------------------------------------------------------  |


Guitar 2:

E | -------------------------------------------------------------  |
H | -------------------------------------------------------------  |
G | -------0--0-----------0--0-----------0--0-------------0------  |
D | 2--------------2--------------0--------------0---------------  |
A | -------------------------------------------------------------  |
E | -------------------------------------------------------------  |




     "...away, away. As I fade away!"

Guitar 1:

E | 0---------0----0---------0----2------------------------------  |
H | -------------------------------------------------------------  |
G | -------------------------------------------------------------  |
D | -------------------------------------------------------------  |
A | -------------------------------------------------------------  |
E | -------------------------------------------------------------  |


Guitar 2:

E | -------------------------------------------------------------  |
H | -------------------------------------------------------------  |
G | -------0--0-----------0--0-----------0--0--------------------  |
D | 2--------------2--------------0--------------0---------------  |
A | -------------------------------------------------------------  |
E | -------------------------------------------------------------  |




Verse 2:


G                           Bm
If I could take it all back before the flags were forced to wave at half mast.
C                                           Em
That was long before my heart became black. There is no way to make it change or go back.
G                                                 Bm
You know that some of us grow old, with no homes. Some of us die in a cold house, with 
no hope.
C                                                          Em
Still surrounded by the people you don't know, so don't go cause it's over the time 
fades your photo.
G                                        Bm
How many goodbyes can fit in a lifetime? How many good lies can make it seem alright?
C                                           Em
What do you see when you look into my eyes? Or in the sky right before you say goodnight?
G                                                     Bm
I could be the son that stands beside of your bed and I could be the voice right inside 
of your head.
C                                              Em
I could say goodbye and you know where I went. I just wrote a letter that'll never be sent...




Chorus:


    "I don't mind, no I don't mind, I don't mind the rain."

Guitar 1:

E | 3------3--3----2------2--2-------------------0---------------  |
H | ------------------------------3------3--3--------------------  |
G | -------------------------------------------------------------  |
D | -------------------------------------------------------------  |
A | -------------------------------------------------------------  |
E | -------------------------------------------------------------  |


Guitar 2:

E | -------------------------------------------------------------  |
H | -------------------------------------------------------------  |
G | -------0--0-----------0--0-----------0--0--------------------  |
D | 2--------------0-----------------------------2---------------  |
A | ------------------------------3------------------------------  |
E | -------------------------------------------------------------  |




    "The simple things and subtleties, they always stay the same."

Guitar 1:

E | 3------3--3----2------2--2-------------------0---------------  |
H | ------------------------------3------3--3--------------------  |
G | -------------------------------------------------------------  |
D | -------------------------------------------------------------  |
A | -------------------------------------------------------------  |
E | -------------------------------------------------------------  |


Guitar 2:

E | -------------------------------------------------------------  |
H | -------------------------------------------------------------  |
G | -------0--0-----------0--0-----------0--0--------------------  |
D | 2--------------0-----------------------------2---------------  |
A | ------------------------------3------------------------------  |
E | -------------------------------------------------------------  |




    "I don't mind that I don't mind, no I don't mind the rain."

Guitar 1:

E | 3------3--3----5------5--5----3---------7----0---------------  |
H | -------------------------------------------------------------  |
G | -------------------------------------------------------------  |
D | -------------------------------------------------------------  |
A | -------------------------------------------------------------  |
E | -------------------------------------------------------------  |


Guitar 2:

E | -------------------------------------------------------------  |
H | -------------------------------------------------------------  |
G | -------0--0-----------0--0-----------0--0--------------------  |
D | 2--------------2-------------2---------------2---------------  |
A | -------------------------------------------------------------  |
E | -------------------------------------------------------------  |




    "Like a widows heart we fall apart but never fade away, fade away."

Guitar 1:

E | 3------3--3----2------2--2-------------------0---------------  |
H | ------------------------------3------3--3--------------------  |
G | -------------------------------------------------------------  |
D | -------------------------------------------------------------  |
A | -------------------------------------------------------------  |
E | -------------------------------------------------------------  |


Guitar 2:

E | -------------------------------------------------------------  |
H | -------------------------------------------------------------  |
G | -------0--0-----------0--0-----------0--0--------------------  |
D | 2--------------0-----------------------------2---------------  |
A | ------------------------------3------------------------------  |
E | -------------------------------------------------------------  |





    "Fade away, as I fade away..."

Guitar 1:

E | 3---------3----3---------3----2---------2----2--------7------  |
H | -------------------------------------------------------------  |
G | -------------------------------------------------------------  |
D | -------------------------------------------------------------  |
A | -------------------------------------------------------------  |
E | -------------------------------------------------------------  |


Guitar 2:

E | -------------------------------------------------------------  |
H | -------------------------------------------------------------  |
G | -------0--0-----------0--0-----------0--0-------------0------  |
D | 2--------------2--------------0--------------0---------------  |
A | -------------------------------------------------------------  |
E | -------------------------------------------------------------  |




     "...away, away. As I fade away!"

Guitar 1:

E | 0---------0----0---------0----2------------------------------  |
H | -------------------------------------------------------------  |
G | -------------------------------------------------------------  |
D | -------------------------------------------------------------  |
A | -------------------------------------------------------------  |
E | -------------------------------------------------------------  |


Guitar 2:

E | -------------------------------------------------------------  |
H | -------------------------------------------------------------  |
G | -------0--0-----------0--0-----------0--0--------------------  |
D | 2--------------2--------------0--------------0---------------  |
A | -------------------------------------------------------------  |
E | -------------------------------------------------------------  |




     "...away, away. As I fade away,..."

Guitar 1:

E | 0---------0----0---------0----2------------------------------  |
H | -------------------------------------------------------------  |
G | -------------------------------------------------------------  |
D | -------------------------------------------------------------  |
A | -------------------------------------------------------------  |
E | -------------------------------------------------------------  |


Guitar 2:

E | -------------------------------------------------------------  |
H | -------------------------------------------------------------  |
G | -------0--0-----------0--0-----------0--0--------------------  |
D | 2--------------2--------------0--------------0---------------  |
A | -------------------------------------------------------------  |
E | -------------------------------------------------------------  |




     "...fade away. As I fade away!"

Guitar 1:

E | 0---------0----0---------0----2------------------------------  |
H | -------------------------------------------------------------  |
G | -------------------------------------------------------------  |
D | -------------------------------------------------------------  |
A | -------------------------------------------------------------  |
E | -------------------------------------------------------------  |


Guitar 2:

E | -------------------------------------------------------------  |
H | -------------------------------------------------------------  |
G | -------0--0-----------0--0-----------0--0--------------------  |
D | 2--------------2--------------0--------------0---------------  |
A | -------------------------------------------------------------  |
E | -------------------------------------------------------------  |





Outro:

Guitar 1:

E | 3---------3----3---------3----2---------2----2--------7------  |
H | -------------------------------------------------------------  |
G | -------------------------------------------------------------  |
D | -------------------------------------------------------------  |
A | -------------------------------------------------------------  |
E | -------------------------------------------------------------  |


Guitar 2:

E | -------------------------------------------------------------  |
H | -------------------------------------------------------------  |
G | -------0--0-----------0--0-----------0--0-------------0------  |
D | 2--------------2--------------0--------------0---------------  |
A | -------------------------------------------------------------  |
E | -------------------------------------------------------------  |




Guitar 1:

E | 0---------0----0---------0----2---------2----2---------------  |
H | -------------------------------------------------------------  |
G | -------------------------------------------------------------  |
D | -------------------------------------------------------------  |
A | -------------------------------------------------------------  |
E | -------------------------------------------------------------  |


Guitar 2:

E | -------------------------------------------------------------  |
H | -------------------------------------------------------------  |
G | -------0--0-----------0--0-----------0--0--------------------  |
D | 2--------------2--------------0--------------0---------------  |
A | -------------------------------------------------------------  |
E | -------------------------------------------------------------  |




Guitar 1:

E | 3---------3----3---------3----2---------2----2--------7------  |
H | -------------------------------------------------------------  |
G | -------------------------------------------------------------  |
D | -------------------------------------------------------------  |
A | -------------------------------------------------------------  |
E | -------------------------------------------------------------  |


Guitar 2:

E | -------------------------------------------------------------  |
H | -------------------------------------------------------------  |
G | -------0--0-----------0--0-----------0--0-------------0------  |
D | 2--------------2--------------0--------------0---------------  |
A | -------------------------------------------------------------  |
E | -------------------------------------------------------------  |




Guitar 1:

E | 0---------0----0---------0----2---------2----2---------------  |
H | -------------------------------------------------------------  |
G | -------------------------------------------------------------  |
D | -------------------------------------------------------------  |
A | -------------------------------------------------------------  |
E | -------------------------------------------------------------  |


Guitar 2:

E | -------------------------------------------------------------  |
H | -------------------------------------------------------------  |
G | -------0--0-----------0--0-----------0--0--------------------  |
D | 2--------------2--------------0--------------0---------------  |
A | -------------------------------------------------------------  |
E | -------------------------------------------------------------  |




The End.




Tabbed by LuisPaul
Tap to rate this tab
# A B C D E F G H I J K L M N O P Q R S T U V W X Y Z