Song name
# A B C D E F G H I J K L M N O P Q R S T U V W X Y Z

Hollywood Undead - Kill Everyone tab

                      Hollywood undead kill everyone

tabbed by:robbie.thecloud
   
 verse   
e|---------------------------------------------------------------|
b|---------------------------------------------------------------|
g|---------------------------------------------------------------|x4
d|---------------------------------------------------------------|
a|---------------------------------------------------------------|
d|-------5-3-5--5-3-0--5-3-5--5-3-0--5-3-5--5-3-0--5-3-5-0-00-1-2|
pre-chorus
e|------------------------------------------|
b|------------------------------------------|
g|------------------------------------------|x2
d|------------------------------------------|
a|------------------------------------------|
d|-5-3-5----5-3-5----5-3-5----5-3-5-0-00-1-2|

chorus
e|--------------------------------------------------------------------|
b|---------------55555555-77777777-------------------55555555-77777777|
g|---------------55555555-77777777-------------------55555555-77777777|
d|-5~~~-00000000-33333333-55555555-55555555-00000000-33333333-55555555|
a|-5~~~-00000000-------------------55555555-00000000------------------|
d|-5~~~-00000000-------------------55555555-00000000------------------|

verse
e|----------------------------------------------------|
b|----------------------------------------------------|
g|----------------------------------------------------|
d|----------------------------------------------------|x4
a|----------------------------------------------------|
d|-5-3-5--5-3-0--5-3-5---5-3-5--5-3-0--5-3-5-0-00-1-2-|

pre-chorus
e|---------------------------------------|
b|---------------------------------------|
g|---------------------------------------|
d|---------------------------------------|x2
a|---------------------------------------|
d|5-3-5---5-3-5---5-3-5---5-3-5-0-00-1-2-|

chorus
e|-------------------------------------------------------------------------|
b|-------------------55555555-77777777-------------------55555555-77777777-|
g|-------------------55555555-77777777-------------------55555555-77777777-|
d|-55555555-00000000-33333333-55555555-55555555-00000000-33333333-55555555-|
a|-55555555-00000000-------------------55555555-00000000-------------------|
d|-55555555-00000000-------------------55555555-00000000-------------------|

bridge
e|-------------------------------------|
b|-------------------5-5-5~~~-7-7-7~~~-|
g|-------------------5-5-5~~~-7-7-7~~~-|
d|-5-5-5~~~-0-0-0~~~-3-3-3~~~-5-5-5~~~-|x3
a|-5-5-5~~~-0-0-0~~~-------------------|
d|-5-5-5~~~-0-0-0~~~-------------------|

chorus
e|--------------------------------------------------------------------|
b|-------------------55555555-77777777-------------------55555555-7~~~|
g|-------------------55555555-77777777-------------------55555555-7~~~|
d|-55555555-00000000-33333333-55555555-55555555-00000000-33333333-5~~~|
a|-55555555-00000000-------------------55555555-00000000--------------|
d|-55555555-00000000-------------------55555555-00000000--------------|

pretty easy song but really fun
Tap to rate this tab
# A B C D E F G H I J K L M N O P Q R S T U V W X Y Z