Song name
# A B C D E F G H I J K L M N O P Q R S T U V W X Y Z

Hollywood Undead - Lump Your Head tab

------------------------------Hollywood Undead----------------------------------|
-------------------------------Lump Your Head-----------------------------------|
------------------------------American Tragedy----------------------------------|
Tabbed by: Voldek
E-mail: voldek1998@gmail.com

Hello, my first tab. Hope you enjoy.
Pretty easy song. Use low distortion, tuning: Drop D



    Intro (not played on guitar, but you can play it):
e|--------------------|
B|-----4---7-8--------|
G|--5----5------------| x2
D|--------------------|
A|--------------------|
D|--------------------|

   "Boy, you better put a lid on it"
e|--------------------------|
B|--------------------------|
G|--------------------------| x2
D|-10--10--8--8--6--6-5-5-5-|
A|-10--10--8--8--6--6-5-5-5-|
D|-10--10--8--8--6--6-5-5-5-|

              Chorus
e|---------------------------  ------------------------------------|
B|---------------------------  ------------------------------------|
G|---------------------------  ------------------------------------|
D|-10--10--8--8--6--6-5-5-5--  ---------10--10--8--8---------------|
A|-10--10--8--8--6--6-5-5-5--x7---------10--10--8--8---------------|
D|-10--10--8--8--6--6-5-5-5--  ---------10--10--8--8---------------|
                         'cause          you    don't   want   none


  Verse: there is no guitar here, there is a bass, but you can play this:
e|--------------------------|
B|--------------------------|
G|--------------------------|
D|--------------------------|
A|--------------------------|
D|-10--10--8--8--6--6-5-5-5-| x8

 Then:

CHORUS
VERSE
CHORUS
VERSE, a little change here, in the second part of this verse (2:18) there is a guitar, 
playing this:
e|--------------------------|
B|--------------------------|
G|--------------------------|
D|--10--10------------------|
A|--10--10------------------| x3
D|--10--10------------------|

CHORUS again
VERSE, another change here - in the second part of this verse (3:15) there is a guitar, 
playing this:
e|--------------------------------|
B|--------------------------------|
G|--------------------------------|
D|-10--10--12--12--13--13--12--12-|
A|-10--10--12--12--13--13--12--12-| x4
D|-10--10--12--12--13--13--12--12-|

AND THEN LAST CHORUS.

Pretty easy song, but with some catchy riffs. Hope this tab is accurate. E-mail me, if
you've got any corrections.
Tap to rate this tab
# A B C D E F G H I J K L M N O P Q R S T U V W X Y Z