Song name
# A B C D E F G H I J K L M N O P Q R S T U V W X Y Z

Hollywood Undead - Circles tab

From the beginning to the end of the first chorus.
e|-----------------------------------------------------------------------------|
B|-----------------------------------------------------------------------------|
G|-----------------------------------------------------------------------------|
D|------------5-----------------5------------------6----------------6----------|
A|-------6--------6--------6--------6--------6--------6-------6-------6--------|
E|---8-----------------8------------------8-----------------8------------------|

e|-----------------------------------------------------------------------------|
B|-----------------------------------------------------------------------------|
G|-----------------------------------------------------------------------------|
D|------------5-----------------5------------------5----------------5----------|
A|-------6--------6--------6--------6--------5--------5-------5-------5--------|
E|---6-----------------6------------------7-----------------7------------------|

From I see me, writing on this paper, to Till Im gone and I can sleep.
e|-----------------------------------------------------------------------------|
B|-----------------------------------------------------------------------------|
G|-----------------------------------------------------------------------------|
D|---10---5---6---5---1---0---5------------------------------------------------|
A|-----------------------------------------------------------------------------|
E|-----------------------------------------------------------------------------|

From I was running in circles, to end of song.

e|-----------------------------------------------------------------------------|
B|-----------------------------------------------------------------------------|
G|-----------------------------------------------------------------------------|
D|------------5-----------------5------------------6----------------6----------|
A|-------6--------6--------6--------6--------6--------6-------6-------6--------|
E|---8-----------------8------------------8-----------------8------------------|

e|-----------------------------------------------------------------------------|
B|-----------------------------------------------------------------------------|
G|-----------------------------------------------------------------------------|
D|------------5-----------------5------------------5----------------5----------|
A|-------6--------6--------6--------6--------5--------5-------5-------5--------|
E|---6-----------------6------------------7-----------------7------------------|
Tap to rate this tab
# A B C D E F G H I J K L M N O P Q R S T U V W X Y Z