Song name
# A B C D E F G H I J K L M N O P Q R S T U V W X Y Z

Hollywood Undead - Rain tab

Intro
E-----------------------------------------------|
B-----------------------------------------------|
G-----------------------------------------------|
D--------------------------9--------------------|
A-10-7-10-10-7-10-9-5-9-9---7--7-7--7-9-5-9-9---|
E------------------------------7----7-----------|

Chorus

I Don't Mind No  I Don't Mind No
E----------------------------------------------|
B----------------------------------------------|
G----------------------------------------------|
D-5-5-5-5-4-4-4-4------------------------------|
A----------------------------------------------|
E----------------------------------------------|
I Don't Mind The Rain
E----------------------------------------------|
B----------------------------------------------|
G----------------------------------------------|
D-5-4-2-0-2------------------------------------|
A----------------------------------------------|
E----------------------------------------------|
These simple things & subtleties they always stay the same
E----------------------------------------------|
B----------------------------------------------|
G----------------------------------------------|
D-5-5-5-7-4-4-4-4-5-4-2-0-2--------------------|
A----------------------------------------------|
E----------------------------------------------|

I don’t Mind, that I don’t mind no I don’t mind the rain
E----------------------------------------------|
B----------------------------------------------|
G----------------------------------------------|
D-5-5-5-5-7-7-7-5-9-7-5-4-5-4-2----------------|
A----------------------------------------------|
E----------------------------------------------|

Like a widows heart we fall apart but never fade away, fade away…

E-----------------------------------------|
B-----------------------------------------|
G-----------------------------------------|
D-2-2-5-5-5-7-4-4-4-4-5-4-2-0-2--2-0------|
A--------------------------------------2--|
E-----------------------------------------|
Tap to rate this tab
# A B C D E F G H I J K L M N O P Q R S T U V W X Y Z