Song name
# A B C D E F G H I J K L M N O P Q R S T U V W X Y Z

Hollywood Undead - Outside tab

-------------------------------------------------------------------------------
                             Outside - Hollywood Undead
-------------------------------------------------------------------------------
Tabbed by:Tyler Q.
E-mail:lagger910@gmail.com

   Tuning:Standard tuning

e|--------------------------------------------------------------------|
B|--------------------------------------------------------------------|
G|--------------------------------------------------------------------|
D|--------------------8----8-8----8-7---7-7---7-7----7-7-7-7----------| x5
A|--10----10-10----10---10-----10-----8-----8-----8-------------------|
E|-----10-------10----------------------------------------------------|

   Tuning:Drop D.
e|---------------------------------------------------------------------------|
B|---------------------------------------------------------------------------|
G|---------------------------------------------------------------------------|
D|---5-5--5-5--5---5-5--5-5--5-8--3-3--3-3--3--3-3--3-0----------------------|
A|---5-5--5-5--5---5-5--5-5--5-8--3-3--3-3--3--3-3--3-0----------------------|
E|---5-5--5-5--5---5-5--5-5--5-8--3-3--3-3--3--3-3--3-0----------------------|

  So there you go, if there is anything you think is wrong send me an email and ill check it out.
Tap to rate this tab
# A B C D E F G H I J K L M N O P Q R S T U V W X Y Z