Song name
# A B C D E F G H I J K L M N O P Q R S T U V W X Y Z

Hollywood Undead - Rain tab

-------------------------------------------------------------------------------
			     RAIN - Hollywood Undead
-------------------------------------------------------------------------------
Tabbed by: Kobetwilson1
E-mail: bananayoyoing@gmail.com

Tuning: Standard

e|-3-----3---3-------3----2------2---2------2---2----7---------------------------|
B|-------------------------------------------------------------------------------|
G|-----0----------0-----------0----------0---------------------------------------|
D|-2-2-------2-2----------0-0--------0-0--------0----5---------------------------|
A|-------------------------------------------------------------------------------|
E|-------------------------------------------------------------------------------|

e|--0------0---0------0----2--------2--2-------------------------------------|
B|---------------------------------------------------------------------------|
G|-------0---------0-------------0-------------------------------------------|
D|--2-2--------2-2---------0--0--------0-------------------------------------|
A|---------------------------------------------------------------------------|
E|---------------------------------------------------------------------------|

This repeats throughout the whole song. Enjoy!

Free to email me any corrections, for this is my first tab!



************************************

| /   slide up
| \   slide down
| h   hammer-on
| p   pull-off
| ~   vibrato
| +   harmonic
| x   Mute note
| b   Bend
| pb  Pre-bend
| br  Bend release
| pbr Pre-bend release
| brb Bend release bend

************************************
Tap to rate this tab
# A B C D E F G H I J K L M N O P Q R S T U V W X Y Z