Song name
# A B C D E F G H I J K L M N O P Q R S T U V W X Y Z

Hollywood Undead - No 5 tab

This Song Is Really Simple. It Just Repeats Over and Over.


Main Beat
----------------------------------|
----------------------------------|
----------------------------------| - Repeated Throughout
----------------------------------| - Song
---------8------------------------|
-6-8-9-6---8-9-2-8-9-1-8-9--------|

Main Riff
-13--13-12-12-11-11-9--9-8-8-9-8--|
----------------------------------|
----------------------------------| - Also Repeated
----------------------------------| - Throughout Song
----------------------------------|
----------------------------------|


This Part Starts Around 2:00 (Very Fast)
------------------------------------------------------------------------|
-----11-11-----11-11-----11-11-----11-11-----4-4-----4-4-----6-6----6-6-|
------------------------------------------------------------------------|
-8-8-------8-8-------8-8-------8-8-------1-1-----1-1-----3-3-----3-3----|
------------------------------------------------------------------------|
------------------------------------------------------------------------|


Background Violins = Simple
----------------------------------|
----------------------------------|
----------11-11-10-10-------------| - This Is In Random
-8-8-8-8--------------------------| - Parts Of The Song
----------------------------------| - So Just Listen For It
----------------------------------|


If There Are Any Mistakes, Comments, Or Suggestions. email me = jersyskater247@yahoo.com

Tabed By: Joel w/ Some Help From Deadhand
Tap to rate this tab
 
# A B C D E F G H I J K L M N O P Q R S T U V W X Y Z