Song name
# A B C D E F G H I J K L M N O P Q R S T U V W X Y Z

Hollywood Undead - Christmas Time In Hollywood tab

Chorus/beginning

e|----------------------------------------------------|
B|----------------------------------------------------|    
G|----------------------------------------------------| 
D|----------------------------------------------------|
A|----5--5--6--5--3--1--------5--5--5--6--5--3--1-----|
E|-6--------------------------------------------------|


e|----------------------------------------------------|
B|----------------------------------------------------|    
G|----------------------------------------------------| 
D|----------------------------------------------------|
A|-5--5--5--6--5--3--1---1--3--1--0-------------------|
E|----------------------------------------------------|


Verses


e|----------------------------------------------------|
B|----------------------------------------------------|    
G|----------------------------------------------------| 
D|----------------------------------------------------|
A|----------------------------------------------------|
E|---6----5----3----1---------------------------------|



if you can figure it out your a retard

Tap to rate this tab
# A B C D E F G H I J K L M N O P Q R S T U V W X Y Z