Song name
# A B C D E F G H I J K L M N O P Q R S T U V W X Y Z

Holograms - Orpheo tab

Holograms - Orpheo
From the album Holograms (captured tracks 2012).

http://holograms.se/

Tabbed by Isaac Murguia, July 2012.
YouTube: Goadiroth

INTRO:
e|-----------------------------------------|
B|---------------------3333-3333-3333-3333-|
G|-7777-7777-7777-9999-4444-4444-4444-4444-|
D|-5555-5555-5555-7777-2222-2222-2222-2222-|
A|-----------------------------------------|
E|-----------------------------------------| [x10]

CHORUS:
e|-3333-3333-3333-3333--3333-3333-2222-2222-|
B|-3333-3333-3333-3333--3333-3333-2222-2222-|
G|-4444-4444-4444-4444--5555-5555-4444-4444-|
D|-5555-5555-5555-5555--5555-5555-4444-4444-|
A|-5555-5555-5555-5555--3333-3333-2222-2222-|
E|-3333-3333-3333-3333----------------------| [x4]

Repeat INTRO [x2]
Repeat CHORUS [x4]

BRIDGE:
e|-3333-3333-3333-3333------------2222-222-xx-|
B|-3333-3333-3333-3333------------3333-333-xx-|
G|-4444-4444-4444-4444------------4444-444-xx-|
D|-5555-5555-5555-5555--2222-2222-4444-444-xx-|
A|-5555-5555-5555-5555--2222-2222-2222-222-xx-|
E|-3333-3333-3333-3333--0000-0000-------------| [x4]

OUTRO:
e|-3333-3333--2222-2222-|      |-3------------|
B|-3333-3333--3333-3333-|      |-3------------|
G|-4444-4444--4444-4444-|      |-4------------|
D|-5555-5555--4444-4444-|      |-5------------|
A|-5555-5555--2222-2222-|      |-5------------|
E|-3333-3333------------| [x4] |-3------------| end.

=======================================================
=======================================================

HERE'S THE LEAD SYNTH STUFF:

  DURING VERSE:     | AFTER VERSE:
e|------------------|--------------------------------|
B|------------------|-8--7---------------------------|
G|-9--7-------------|-------44/5-7-5--4---4/5-7-5--4-|
D|-------7/9-10--9--|--------------------------------|
A|------------------|--------------------------------|
E|------------------|--------------------------------|

  DURING OUTRO:
e|------------------|
B|------------------|
G|------------------|
D|-9--7-------------|
A|-------9-10-------|
E|------------------|
Tap to rate this tab
# A B C D E F G H I J K L M N O P Q R S T U V W X Y Z