Song name
# A B C D E F G H I J K L M N O P Q R S T U V W X Y Z

Holy Grail - Silence The Scream tab

The first riff of "Silence The Scream" learned by ear.

Palm-mute throughout (except trills)

Part 1

Gtr. 1
d|--------------------------------|--------------------------------|
A|--------------------------------|--------------------------------|
F|--------------------------------|--------------------------------|
C|--------------------------------|-7-7-7-7-7-7-7-7-3-3-3-3-3-3-3-3|
G|-5-5-5-5-5-5-5-5-5-5-5-5-5-5-5-5|--------------------------------|
D|--------------------------------|--------------------------------|

d|-------------------------------------|-------------------------------------------------|
A|-------------------------------------|-------------------------------------------------|
F|-------------------------------------|-------------------------------------------------|
C|-8-8-8-8-8-8-8-8-8-8-8-8-12-12-12-12-|-14-14-14-14-14-14-14-14-15-15-15-15-15-15-15-15-|
G|-------------------------------------|-------------------------------------------------|
D|-------------------------------------|-------------------------------------------------|

d|--------------------------------|--------------------------------|
A|--------------------------------|--------------------------------|
F|--------------------------------|--------------------------------|
C|--------------------------------|-7-7-7-7-7-7-7-7-3-3-3-3-3-3-3-3|
G|-5-5-5-5-5-5-5-5-5-5-5-5-5-5-5-5|--------------------------------|
D|--------------------------------|--------------------------------|

d|-------------------------------------|-------------------------------------------------|
A|-------------------------------------|-------------------------------------------------|
F|-------------------------------------|-------------------------------------------------|
C|-8-8-8-8-8-8-8-8-8-8-8-8-12-12-12-12-|-14-14-14-14-14-14-14-14-11-11-11-11-11-11-11-11-|
G|-------------------------------------|-------------------------------------------------|
D|-------------------------------------|-------------------------------------------------|

Part 2

Gtr. 1
d|--------------------------------|--------------------------------|
A|--------------------------------|--------------------------------|
F|--------------------------------|--------------------------------|
C|--------------------------------|-7-7-7-7-7-7-7-7-3-3-3-3-3-3-3-3|
G|-5-5-5-5-5-5-5-5-5-5-5-5-5-5-5-5|--------------------------------|
D|--------------------------------|--------------------------------|

d|-------------------------------------|-------------------------------------------------|
A|-------------------------------------|-------------------------------------------------|
F|-------------------------------------|-------------------------------------------------|
C|-8-8-8-8-8-8-8-8-8-8-8-8-12-12-12-12-|-14-14-14-14-14-14-14-14-15-15-15-15-15-15-15-15-|
G|-------------------------------------|-------------------------------------------------|
D|-------------------------------------|-------------------------------------------------|

d|--------------------------------|--------------------------------|
A|--------------------------------|--------------------------------|
F|--------------------------------|--------------------------------|
C|--------------------------------|-7-7-7-7-7-7-7-7-3-3-3-3-3-3-3-3|
G|-5-5-5-5-5-5-5-5-5-5-5-5-5-5-5-5|--------------------------------|
D|--------------------------------|--------------------------------|

d|-------------------------------------|-------------------------------------------------|
A|-------------------------------------|-------------------------------------------------|
F|-------------------------------------|-------------------------------------------------|
C|-8-8-8-8-8-8-8-8-8-8-8-8-12-12-12-12-|-14-14-14-14-14-14-14-14-11h12trill--------------|
G|-------------------------------------|-------------------------------------------------|
D|-------------------------------------|-------------------------------------------------|



Gtr. 2 (Harmony)
d|--------------------------------|----------------------------------------|
A|--------------------------------|----------------------------------------|
F|--------------------------------|----------------------------------------|
C|--------------------------------|-11-11-11-11-11-11-11-11-7-7-7-7-7-7-7-7|
G|-8-8-8-8-8-8-8-8-8-8-8-8-8-8-8-8|----------------------------------------|
D|--------------------------------|----------------------------------------|

d|-------------------------------------|-------------------------------------------------|
A|-------------------------------------|-------------------------------------------------|
F|-7-7-7-7-7-7-7-7-7-7-7-7-10-10-10-10-|-12-12-12-12-12-12-12-12-14-14-14-14-14-14-14-14-|
C|-------------------------------------|-------------------------------------------------|
G|-------------------------------------|-------------------------------------------------|
D|-------------------------------------|-------------------------------------------------|

d|--------------------------------|----------------------------------------|
A|--------------------------------|----------------------------------------|
F|--------------------------------|----------------------------------------|
C|--------------------------------|-11-11-11-11-11-11-11-11-7-7-7-7-7-7-7-7|
G|-8-8-8-8-8-8-8-8-8-8-8-8-8-8-8-8|----------------------------------------|
D|--------------------------------|----------------------------------------|

d|-------------------------------------|-------------------------------------------------|
A|-------------------------------------|-------------------------------------------------|
F|-7-7-7-7-7-7-7-7-7-7-7-7-10-10-10-10-|-12-12-12-12-12-12-12-12-9h10trill---------------|
C|-------------------------------------|-------------------------------------------------|
G|-------------------------------------|-------------------------------------------------|
D|-------------------------------------|-------------------------------------------------|
Tap to rate this tab
# A B C D E F G H I J K L M N O P Q R S T U V W X Y Z