Song name
# A B C D E F G H I J K L M N O P Q R S T U V W X Y Z

Holy Sons - Slow Days tab

Holy Sons - Slow Days
From Survivalist Tales

E  :--------3-------|--------3-------|--------3-------|--------3-------|  |
B  :----2-------2---|----2-------2---|----2-------2---|----2-------2---| :|
G  :0---------------|0---------------|0---------------|0---------------|  |
D  :----------------|----------------|----------------|----------------|  |
A  :----------------|----------------|----------------|----------------| :|
E  :3-------3-------|3-------3-------|3-------3-------|3-------3-------|  |x1



E  :--------3-------|--------3-------|--------3-------|--------3-------|
B  :----2-------2---|----2-------2---|----2-------2---|----2-------2---|
G  :0---------------|0---------------|0---------------|0---------------|
D  :----------------|----------------|----------------|----------------|
A  :----------------|----------------|----------------|----------------|
E  :3-------3-------|3-------3-------|3-------3-------|3-------3-------|

            Slow             days              dont hold    over


E  :----3-------3---|----3-------3---|----3-------3---|----3-------3---|
B  :2---------------|2---------------|2---------------|2---------------|
G  :0-------0-------|0-------0-------|0-------0-------|0-------0-------|
D  :----------------|----------------|----------------|----------------|
A  :----------------|----------------|----------------|----------------|
E  :--------3-------|--------3-------|--------3-------|--------3-------|
               easy on your brain             when ya      


E  :----3-------3---|----3-------3---|--------------------|---------------------|
B  :3---------------|3---------------|--------------------|---------------------|
G :0-------0-------|0-------0-------|0-------0-h2-h0-----|-0-h2-h0---0-h2-h0---|
D  :----------------|----------------|----2------------2--|---------2---------2-|
A  :3-------3-------|3-------3-------|4-------------------|-4---------4---------|
E  :----------------|----------------|--------------------|---------------------|

         throw the clock away


E  :----3-------3---|----3-------3---|--------------------|---------------------|
B  :3---------------|3---------------|--------------------|---------------------|
G  :0-------0-------|0-------0-------|0-------0-h2-h0-----|-0-h2-h0---0-h2-h0---|
D  :----------------|----------------|----2------------2--|---------2---------2-|
A  :3-------3-------|3-------3-------|4-------------------|-4---------4---------|
E  :----------------|----------------|--------------------|---------------------|

         throw   the clock     away


E  :----3------3----|----3------3----|----3------3----|----3------3----|
B  :3---------------|3---------------|3---------------|3---------------|
G  :0------0--------|0------0--------|0------0--------|0------0--------|
D  :----------------|----------------|----------------|----------------|
A  :-------3--------|-------3--------|4------4--------|-------4--------|
E  :----------------|----------------|----------------|----------------|

                     It just comes back again                       In its


E  :----3------3----|----3------3----|----3------3----|----3------3----|
B  :3---------------|3---------------|3---------------|3---------------|
G  :0------0--------|0------0--------|0------0--------|0------0--------|
D  :----------------|----------------|----------------|----------------|
A  :-------3--------|-------3--------|-------4--------|-------4--------|
E  :----------------|----------------|----------------|----------------| 
 
         own              way                          In its    own 

E  :----3------3----|----3------3----|----3------3----|----3------3----|
B  :3---------------|3---------------|3---------------|3---------------|
G  :0------0--------|0------0--------|0------0--------|0------0--------|
D  :----------------|----------------|----------------|----------------|
A  :-------3--------|-------3--------|-------3--------|-------3--------|
E  :----------------|----------------|----------------|----------------| 

   way


It repeats and when the synth comes in Im currently trying to figure out the chords

Something like Cadd9 and then

-3--3
-3--3
-0--0
----2
-3---
Tap to rate this tab
# A B C D E F G H I J K L M N O P Q R S T U V W X Y Z