Song name
# A B C D E F G H I J K L M N O P Q R S T U V W X Y Z

Holygun Crucifix - Tentative Enfantin tab

HolyGun Crucifix 

Tentative Enfantin 
music by Pamlee WinZip and Bleed
text by WinZip 2007


|-----------------------------------------------------------------|
|--------------------------------3--------------------------------|
|--------------------------------2---2----------------------------|
|-2-----2-2-2-2-------0-0-0-0----0---0-0-0-0-0--------------------|
|-0-----3-0-2-3-2---2-3-0-2-3----------3-0-2-3----3---3-3-2~------|
|---------------3---3-----------------------------1---1-----------|

 
|-----------------------------------------------------------------|
|---------------------------------3-------------------------------|
|-2-------------------------------2---2---------------------------| 
|-2--------------5----------------0---0------------3--------------|
|-0-----3-0-2-3--5---5-3-0-2-3----------3-0-2-3----3---3-0-2-3----|
|----------------3---3-----------------------------1--------------|

Couplet 1

 Am           C             	 	 Em         F
 la nuit demeure 	 	 et tu attend toujours la frayeur
 pensant que l'obscurit	 	 est signe de fatalit
 noir dans tes yeux noirs de tes voeux   je te comprend mais reste l
 tu veux vraiment etre la dessous		 avant que ce soit moi


refrain

 Am           G            Dm         F
 Je sais que tu naimes pas a mais Tu nas pas le choix
 Am            G           Dm         F
Sache que cette vie nest pas ce que tu crois


 couplet 2 


 Am          C            Em          F
 Tu veux partir de lautre ct du chemin
 Am         C               Em            F
 Tu crois vraiment que cest demain que tout ce finira

 refrain

 Am           G            Dm         F
 Je sais que tu naimes pas a mais Tu nas pas le choix
 Am            G           Dm         F
 Sache que cette vie nest pas ce que tu crois
 Am            G            Dm          F
 Yen as marre de tous ces combats Ils nont pas le droit

 Am             G            Dm         F
 Sache que ta vie nest pas  Seulement a !

 Pont:
  Am              G               Dm              F 
|---------------------------------1-0-----1-0-----1-0-----1-0-----|
|-8-5-----8-5-----8-5-----8-5---------1-------1-------1-------1---|
|-----5-------5-------5-------5---------2-------2-------2-------2-|   
|-------7-------7-------7-------7---------------------------------|  
|-----------------------------------------------------------------|
|-----------------------------------------------------------------|

retour dernier refrain
Tap to rate this tab
# A B C D E F G H I J K L M N O P Q R S T U V W X Y Z