Song name
# A B C D E F G H I J K L M N O P Q R S T U V W X Y Z

Hombres G - Te Quiero tab

Ok esta es mi primer tablatura espero q les guste mmm esta cancion la he oido y a mi 
parecer ninguna tablatura esta correcta sin animos de ofender
todos la han sacado por acordes y no como va xD pero bueno tampoco es perfecta y aqui 
les dejo como yo creo q es:

e-----------------------------------------º
B-----------------------------------------º
G-----------------------------------------º
D------0-0-0-----0-0-0----0-----0-----0---º
A--0-2------0--2------0-2---0-2---0-2-----º
E-----------------------------------------º

e-------------------------------------------------------------º
B-------------------------------------------------------------º
G-------------------------------------------------------------º
D------0------4--4-2---------------------------0--------------º
A--0-2----0-2------------4-4------4-2-0-------2--0-0---0-2-4--º
E--------------------2-2-----2-2--------3-3--3----------------º

e---------------------------º
B---------------------------º
G---------------------------º
D--0-0-0-2-4-2------------0-º
A--------------0-0-0-0-4-2--º
E---------------------------º

luego del intro basico entra:
d  b            f#/f/f#------------->estos acordes no son fa normales
no, ya no me llores,                  abajo esta como se tocan
(rift 1)
No me vayas a hacer
Llorar a mi.
d    b         f#/f/f#
Dame, dame tu mano
(rift 1)
Intentalo, mi niña
Quiero verte reir
d       b
Abrazame fuerte,
d    b
Ven corriendo a mi,
d
Te quiero, te quiero, te quiero
(rift 2)
Y no hago otra cosa
                   d  b  d  a
Que pen-saaar en ti...

e-----------------º
g-----------------º
b-----------------º
d------0----0-----º
a--0-2---0-2--0-2-º
e-----------------º

d  b            f#/f/f#
Tu, ya estas dormida
(rift1)
Y yo te abrazo y
Siento que respiras
d      b         f#/f/f#
Sueño, con tu sonrisa
(rift 1)
Te beso, muy despacio
Las mejillas

d     b
Necesito verte,
d          b
Donde quiera que estes
d
Te quiero, te quiero, te quiero
(rift 2)
Y no hago otra cosa
Que pensar en ti
(rift 3)
Solo vivo y respiro
d      b
Para ti...
(rift 4)
Te quiero
d      b   (rift 4)
Te quiero
(rift 2)
Te quiero
           d  b g a------------------->Estos acordes van despues de la letra
Te quiero                                y si son normales

Solo
E--------------------------------------------------------------------------º
B--10*12---10*12-12-10-----------------------------------------------------º
G----------------------------11-12-11--9/7----7-9/11-11-11-9*11------------º
D----------------------------------------------9---------------------------º
A--------------------------------------------------------------------------º
E--------------------------------------------------------------------------º

E--------------------------------------------------------------------------º
B---------------------------------------------------------9/12-12-12-12-10-º
G-9-9-9*7----------------------------------7-9~9~-7------------------------º
D-----------9-7-9-7-9------------------7-9---------------------------------º
A-----------------------9-10-9-7---7-9-------------------------------------º
E----------------------------------10--------------------------------------º

E--7/10-12-10-10/17-15-14-17-17-17-17/19-17-17/19--19/17-------------------º
B--------------------------------------------------------------------------º
G--------------------------------------------------------------------------º
D--------------------------------------------------------------------------º
A--------------------------------------------------------------------------º
E--------------------------------------------------------------------------º

E----15-15-15*14-------------10---------12-------10-12/14-14-14--12--------º
B--------------------15--10*12----10*12----10*12---------------------------º
G--------------------------------------------------------------------------º
D--------------------------------------------------------------------------º
A--------------------------------------------------------------------------º
E--------------------------------------------------------------------------º

d         b
Abrazame fuerte,
d           b
Ven corriendo a mi,
d
Dejame que te diga
             (rift 2)
Otra vez que te quiero
            d      b (rift 4)
Te quiero, te quiero
d        b (rift 4)
Te quiero,
d           b        g         d
Te quiero, te quiero te quiero
Outo
E----------------------------------2----------------------------º
G----------------------------------3----------------------------º
B----------------------------------2----------------------------º
D-----0-0-0----0-0-0----0----0-----0----------------------------º
A-0-2-------0-2------0-2--0-2--0-2------------------------------º
E---------------------------------------------------------------º


Ahora si lo que cambia: el acode de f# y f son con cejilla asi:
  f#        f
e----º    e----º
g-9--º    g-8--º
b-11-º    b-10-º
d-11-º    d-10-º
a-9--º    a-8--º
e----º    e----º

Despues de estos acordes de fa en las tablaturas ponen acodes de sol y la, los acordes 
sol y la no existen en la cancion es un requinteo si lo oyen bien descubriran q digo 
oigan la cancion para ver los tiempos
va algo asi:
(rift 1)
e-------------------------------------------------------------º
g-------------------------------------------------------------º
b--------------------777-7-666-6------------------------------º
d-4-5-5--4-5-7--5-7-7---7-7---7-------------------------------º
a-------------------------------------------------------------º
e-------------------------------------------------------------º

Mm ademas hay antes q acabe el primer verso un arpegio al final y este se repite en el 
finel de los versos
(rift 2)
e-------3----------3------------3--------------3--------------º
g-----3--3-------3---3--------3---3----------3---3------------º
b---4-----4----4-------4----3--------3----3--------3----------º
d-5----------5------------5-------------5---------------------º
a-------------------------------------------------------------º
e-------------------------------------------------------------º

pero no se repite todo en el segindo va acompañado de este a su ternimo
(rift 3)
e-------5------------5----------------º
g-----5---5--------5---5--------------º
b---6-------6----6-------5------------º
d-7-----------7------------7----------º
a-------------------------------------º
e-------------------------------------º

El rift 4 es una mezcla del 2 con el 3 pero lo puse aparte para q no se confundieran

e-------3----------3------------5-------------5---------º
g-----3--3-------3---3--------5--5----------5----5------º
b---4-----4----4-------4----6-------6-----6-------6-----º
d-5----------5------------7------------7----------------º
a-------------------------------------------------------º
e-------------------------------------------------------º

Bueno si unen todo y lo tocan bien espero q les salga exacto como a mi gracias y alguna 
duda o comentario este es mi coreo sergioalan_95@hotmail.com
Tap to rate this tab
 
# A B C D E F G H I J K L M N O P Q R S T U V W X Y Z