Song name
# A B C D E F G H I J K L M N O P Q R S T U V W X Y Z

Hombres G - Ataque De Chicas Cocodrilo tab

                       solo

Solo de ataque de chicas cocodrilo
e---------------------------------------------------------------------------|
B---9/10-9------------------------------------------------------------------|
G-------------6-4/6----------------2/1-1/2-2--------------------------------|
D-----------------------4----24--------------------------------------------|
A---------------------------------------------------------------------------|
E---------------------------------------------------------------------------|

E----------------------------------------------------------------------------|
B---9/10-9--------------------------------------------7-7-7-7-7-7-7----------|
G--------------64/6---------------6---------------6-6-6-6-6-6-6-------------|
D--------------------------4---------7-----------------7-7-7-7-7-7-7---------|
A----------------------------------------------------------------------------|
E----------------------------------------------------------------------------|
Y LUEGO UNOS ACORDES A-E-E-E-F#m-D-D-D-D Y LUEGO OTRO --
Tap to rate this tab
# A B C D E F G H I J K L M N O P Q R S T U V W X Y Z