Song name
# A B C D E F G H I J K L M N O P Q R S T U V W X Y Z

Hombres G - Te Quiero tab

INTRO:

|------------------------------------------------------------|e
|------------------------------------------------------------|B
|------------------------------------------------------------|G
|---------0--0--0--------0--0--0--------0--------0--------0--|D
|---0--2-----------0--2-----------0--2-----0--2-----0--2-----|A
|------------------------------------------------------------|E


|----------------------------------------------------------------|e
|----------------------------------------------------------------|B
|----------------------------------------------------------------|G
|---------0--------4--4--2--0------------------------------------|D
|---0--2-----0--2--------------------4--4---------4--2--0--------|A
|------------------------------2--2--------2---2-----------3--3--|E



|-------------------------------------------------2--2---2--2---|e
|-------------------------------------------------3--3---3--3---|B
|-------------------------------------------------2--2---4--4---|G
|---------0--------------0--2--4--2---------------0--0---4--4---|D
|---0--2-----0--0--2--4--------------0---0--2--4--x--x---0--0---|A
|-------------------------------------------------x--x---x--x---|E



|---2--1/2--3--3--0--0--2--2--0--0--2--2--2--2---2--1/2--|e
|---2--1/2--3--3--2--2--3--3--2--2--3--3--3--3---2--1/2--|B
|---2--1/2--0--0--2--2--2--2--2--2--2--2--4--4---2--1/2--|G
|-----------0--0--2--2--0--0--2--2--0--0--4--4-----------|D
|-----------2--2--0--0--x--x--0--0--x--x--0--0-----------|A
|-----------3--3--x--x--x--x--x--x--x--x--x--x-----------|E



|---3--3--0--0--2--2--0------------2--2--2--2--------2--2--2--2---|e
|---3--3--2--2--3--3--2------------3--3--3--3--------3--3--3--3---|B
|---0--0--2--2--2--2--2------------2--2--4--4--------2--2--4--4---|G
|---0--0--2--2--0--0--2---------0--0--0--4--4--------0--0--4--4---|D
|---2--2--0--0--x--x--0---0--2-----x--x--0--0--0--2--x--x--0--0---|A
|---3--3--x--x--x--x--x------------x--x--x--x--------x--x--x--x---|E



|---------2--2--2--2-----------3--------------------------3--------|e
|---------3--3--3--3--------------3--------------------------3-----|B
|---------2--2--2--2-----------------0--------------------------0--|G
|---------0--0--0--0--------0--------------------------0-----------|D
|---0--2--X--X--X--X-----2--------------------------2--------------|A
|---------X--X--X--X--3--------------------------3-----------------|E



|------------3--------0--0--2--2--2--2--3--3--0--0--0--0--0--0--0--|e
|---------------3-----2--2--3--3--3--3--3--3--2--2--2--2--2--2--2--|B
|------------------0--2--2--2--2--4--4--0--0--2--2--2--2--2--2--2--|G
|---------0-----------2--2--0--0--4--4--0--0--2--2--2--2--2--2--2--|D
|------2--------------0--0--x--x--0--0--2--2--0--0--0--0--0--0--0--|A
|---3-----------------x--x--x--x--x--x--3--3--x--x--x--x--x--x--x--|E



|---------------------------2--2--2--2--2--1/2--3--3--0--0--2--2--0--0--|e
|---------------------------3--3--3--3--2--1/2--3--3--2--2--3--3--2--2--|B
|---------------------------2--2--4--4--2--1/2--0--0--2--2--2--2--2--2--|G
|---------0--------0--------0--0--4--4----------0--0--2--2--0--0--2--2--|D
|---0--2-----0--2-----0--2--X--X--0--0----------2--2--0--0--X--X--0--0--|A
|---------------------------X--X--X--X----------3--3--X--X--X--X--X--X--|E




|---2--2--2--2---2--1/2--3--3--0--0--2--2--0-----------2--|
|---3--3--3--3---2--1/2--3--3--2--2--3--3--2-----------3--|
|---2--2--4--4---2--1/2--0--0--2--2--2--2--2-----------2--|
|---0--0--4--4-----------0--0--2--2--0--0--2--------0--0--|
|---X--X--0--0-----------2--2--0--0--X--X--0--0--2-----X--|
|---X--X--X--X-----------3--3--X--X--X--X--X-----------X--|



|---2--2--2--------2--2--2--2--------2--2--2--2--|e
|---3--3--3--------3--3--3--3--------3--3--3--3--|B 
|---2--4--4--------2--2--4--4--------2--2--2--2--|G
|---0--4--4--------0--0--4--4--------0--0--0--0--|D
|---X--0--0--0--2--X--X--0--0--0--2--X--X--X--X--|A
|---X--X--X--------X--X--X--X--------X--X--X--X--|E




|------------3-----------------3-----------------3--------|e
|---------------3-----------------3-----------------3-----|B
|------------------0-----------------0-----------------0--|G
|---------0-----------------0-----------------0-----------|D
|------2-----------------2-----------------2--------------|A
|---3-----------------3-----------------3-----------------|E




|---0--0--2--2--2--2--3--3--0--0--2--2--2--2--|e
|---2--2--3--3--3--3--3--3--2--2--3--3--3--3--|B
|---2--2--2--2--4--4--0--0--2--2--2--2--4--4--|G
|---2--2--0--0--4--4--0--0--2--2--0--0--4--4--|D
|---0--0--X--X--0--0--2--2--0--0--X--X--0--0--|A
|---X--X--X--X--X--X--3--3--X--X--X--X--X--X--|E




|------------3-----------------3-----------------3--------|e
|---------------3-----------------3-----------------3-----|B
|------------------0-----------------0-----------------0--|G
|---------0-----------------0-----------------0-----------|D
|------2-----------------2-----------------2--------------|A
|---3-----------------3-----------------3-----------------|E




|---0--0--2--2--2--2--3--3--0--0--0--0--0--0--0--|e
|---2--2--3--3--3--3--3--3--2--2--2--2--2--2--2--|B
|---2--2--2--2--4--4--0--0--2--2--2--2--2--2--2--|G
|---2--2--0--0--4--4--0--0--2--2--2--2--2--2--2--|D
|---0--0--X--X--0--0--2--2--0--0--0--0--0--0--0--|A
|---X--X--X--X--X--X--3--3--X--X--X--X--X--X--X--|E


SOLO:


|-----------------------------------------------^--------------|e
|---10H12--10H12--12--10--7--8--7---------------|--7--7-----7--|B
|----------------------------------9--7-----7--9|--------9-----|G
|----------------------------------------9---------------------|D
|--------------------------------------------------------------|A
|--------------------------------------------------------------|E



|----------------------------------------------------------------------|e
|---5--5--3---------------------------------------------3--5--5--5--3--|B
|------------2H4--2H4--4--2-----------------------2--4-----------------|G
|----------------------------4--5--4--------2--4-----------------------|D
|-------------------------------------5--5-----------------------------|A
|----------------------------------------------------------------------|E



|-----------------------------------17--15--14--15--17--17------|e
|-------------------------------15------------------------------|B
|---14--16--16--16--14--14--16----------------------------------|G
|---------------------------------------------------------------|D
|---------------------------------------------------------------|A
|---------------------------------------------------------------|E


|---17/18--18--18--18--18--15P14---------------------------------------|e
|---------------------------------15---------15---------15---------15--|B
|-------------------------------------14H16------14H16------14H16------|G
|----------------------------------------------------------------------|D
|----------------------------------------------------------------------|A
|----------------------------------------------------------------------|E

                      ^
|---------------------|--|e
|---17--15------15--17|--|B
|-----------16-----------|G
|------------------------|D
|------------------------|A
|------------------------|E
Tap to rate this tab
 
# A B C D E F G H I J K L M N O P Q R S T U V W X Y Z