Guitaretab - guitar tabs
Song name
# A B C D E F G H I J K L M N O P Q R S T U V W X Y Z

Hombres G - Devulveme A Mi Chica tab

e|---10-10----------------------------------------------|
B|---------10-------------------------------------------|
G|-------------10---10---12---10---12---10---12/14----14|
D|------------------------------------------------------|
A|------------------------------------------------------|
E|------------------------------------------------------|

e|---10---10----13----10--------------------------------|
B|------------------------------------------------------|
G|--------------------------10---12----10--10---8/10--10|
D|------------------------------------------------------|
A|------------------------------------------------------|
E|------------------------------------------------------|
[ Tab from: http://www.guitaretab.com/h/hombres-g/51533.html ]
e|--------3-----------------------10--------------------|
B|-------------3--------------------------10------------|
G|---3------------3--------10----------------------10---|
D|------------------------------------------------------|
A|------------------------------------------------------|
E|------------------------------------------------------|

e|------------3------------------------------5/6/7----10~|
B|-----------------3-----------------4/5/6---------------|
G|---3-----------------3-----3/4/5-----------------------|
D|-------------------------------------------------------|
A|-------------------------------------------------------|
E|-------------------------------------------------------|
Related for Devulveme A Mi Chica tab
Advertisement will be closed in 10 seconds