Song name
# A B C D E F G H I J K L M N O P Q R S T U V W X Y Z

Home Grown - Not Alone tab

E----------------------------------------------------------------|
B----------------------------------------------------------------|
G--------------------------7-8----------7h8-10-8-7---------------|
D------6-----------8---------------------------------------------|
A----6----------10-----------------------------------------------|
D--3----------6---------10-----------13--------------------------|

E----------------------------------------------------------------|
B-------------------------5-5-5-5---9-9-9-9---7-7-7-7------------|
G-------------------8--------------------------------------------|
D------6-----------8---------------------------------------------|
A----6----------10-----------------------------------------------|
D--3----------6--------------------------------------------------|

not sure on this part just sounds ok with the song (you can use
13 for 9, 11 for 7, and 9 for 5 all on the g string also)....
E----------------------------------------------------------------|
B---9-9-9-9---7-7-7-7---5-5-5-5----------------------------------|
G----------------------------------------------------------------|
D----------------------------------------------------------------|
A----------------------------------------------------------------|
D----------------------------------------------------------------|

tab for Not Alone by Home Grown, i watched a friend play it and then figured it out from 
so here is what i got. its only a little part of the intro but i like the way it sounds 
felt like postin it...later
Tap to rate this tab
# A B C D E F G H I J K L M N O P Q R S T U V W X Y Z