Song name
# A B C D E F G H I J K L M N O P Q R S T U V W X Y Z

Home Grown - Ill Never Fall In Love Again tab

this is just the intro

e--------------------------------------------------------------------|
b--------------------------------------------------------------------|
g--------------------------------------------------------------------|
d-------------------3-3-3-3-3-3-3-3-3-2-2-2-2-2-2-2-2----------------|
a--3-3-3-3-3-3-3-3-------------------------------------3-3-3-3-3-3-3-|
e--------------------------------------------------------------------|

e--------------------------------------------------------------------|
b--------------------------------------------------------------------|
g--------------------------------------------------------------------|
d------------------------------3-3-3-3-3-3-3-3-5-5-5-5-5-5-5-5-------|
a-3-----3-----3-3-3-3-3-3-3-3----------------------------------------|
e----1---------------------------------------------------------------|

e--------------------------------------------------------------------|
b--------------------------------------------------------------------|
g--------------------------------------------------------------------|
d-2-2-2-2-2-2-2-2----------------------------------------------------|
a------------------3---3---------------------------------------------|
e--------------------1-----------------------------------------------|

have fun. keep on rocking!
Tap to rate this tab
# A B C D E F G H I J K L M N O P Q R S T U V W X Y Z