Song name
# A B C D E F G H I J K L M N O P Q R S T U V W X Y Z

Home Made Kazoku - Manatsu No Dance Call tab

This is only the opening guitar
intro/Chorus*

guitar (0:00)

E-------------8--------------8---------------------|-------------- |
B------8---------10-------------10--8--------------|               |
G--10-----10---------10--10-------------10---------|               |
D--------------------------------------------------|               |
A--------------------------------------------------|               |
E--------------------------------------------------|               |
                                                                   |
(0:03)                                                             |
                                                                   |
E-------------8-----------8------------------------|               |
B------8---------10----------10--8-----------------|               |
G--10-----10---------10-------------10-------------|               |
D--------------------------------------------------|               |
A--------------------------------------------------|               |
E--------------------------------------------------|               |
                                                                   |
E-------------8--------------8---------------------|               |
B------8---------10-------------10--8--------------|               |
G--10-----10---------10--10------------10----------|               |       repeat twice
D--------------------------------------------------|               |
A--------------------------------------------------|               |
E--------------------------------------------------|               |
                                                                   |
E-------------8------------------------------------|               |
B------8---------10--------------------------------|               |
G--10-----10---------10----------------------------|               |
D--------------------------------------------------|               |
A--------------------------------------------------|               |
E--------------------------------------------------|-------------- |

E--------------------------------------------------|
B------10--11~ --10------10--11--13--11------------|
G--10----------------10------------------10--------|
D--------------------------------------------------| X2
A--------------------------------------------------|
E--------------------------------------------------|

E--------------------------------------------------|
B---16/18------------------------------------------|
G--------------------------------------------------|
D--------------------------------------------------|
A--------------------------------------------------|
E--------------------------------------------------|

verse 1 come in on the second part after the word "sexy" (0:51)
verse 2 come in on the second part after the word "dana" (1:47)
play the intro/chorus

play this after the Chorus after the 2nd verse (2:32)


E--------------------------------------------------------|
B------10---------10------11------------13--10--13--18---|
G--10---------10------10------10----10-------------------|
D--------------------------------------------------------| X2
A--------------------------------------------------------|
E--------------------------------------------------------|

solo???

play intro/chorus till the end

symbols key:
~ = vibrato
/ = slide

Enjoy.
I need help figuring out the solo and the other guitar. If you would like to talk to me 
this tab please contact me at tspeedyracer35@yahoo.com
Tap to rate this tab
 
# A B C D E F G H I J K L M N O P Q R S T U V W X Y Z