Song name
# A B C D E F G H I J K L M N O P Q R S T U V W X Y Z

Home Made Kazoku - Thank You tab

Begining:

e|-----------2--------------2-----------2--------------3p2-----------0---------------0--|
B|--------3-----3--------3-----------3-----3--------3-------------2-----2---------2-----|
G|-----0-----------0--------------0-----------0----------------2------------2-----------|
D|--2-----------------2-------------------------------------0------------------0--------|
A|-----------------------------0-----------------0--------------------------------------|
E|--------------------------------------------------------------------------------------|

e|-------------------------------------------|
B|-------------------------------------------|
G|----------------11--12--11--12/14--12--11--|
D|--11h12--12h14-----------------------------|
A|-------------------------------------------|
E|-------------------------------------------|

e|--14--12--14--14--14-----------12--10--12--12--12----------|
B|--x---x---x---x---x---(X2)-----x---x---x---x---x---(X2)----|
G|--11--9---11--11--11-----------9---7---9---9---9-----------|
D|-----------------------------------------------------------|
A|-----------------------------------------------------------|
E|-----------------------------------------------------------|

Chorus:

e|--14--12--14--14--14---------12--10--12--12--12--7--9--10--9--10/12--------|
B|--x---x---x---x---x---(X2)---x---x---x---x---x---x--x--x---x--x--x---------|
G|--11--9---11--11--11---------9---7---9---9---9---5--7--8---5--8-/10--------|
D|---------------------------------------------------------------------------|
A|---------------------------------------------------------------------------|
E|---------------------------------------------------------------------------|

e|--14--12--14--14--14---------12--10--12--12--12--7--9--10--9--10/12--------|
B|--x---x---x---x---x---(X2)---x---x---x---x---x---x--x--x---x--x--x---------|
G|--11--9---11--11--11---------9---7---9---9---9---5--7--8---5--8-/10--------|
D|---------------------------------------------------------------------------|
A|---------------------------------------------------------------------------|
E|---------------------------------------------------------------------------|

1stpartVerse?

e|--2~---2~---0~---0~----2~--2~--0~------------------------------------------|
B|--3~---3~---2~---2~----3~--3~--2~-------3/5--5--3-----3--------------------|
G|--0~---0~---2~---2~----0~--0~--2~--2h4-------------4-----------------------|
D|--2~---x----0~---0~----2~--x---0~------------------------------------------|
A|-------0~------------------0~----------------------------------------------|
E|---------------------------------------------------------------------------|

2stpartVerse?

e|---------------------------------------------------------------------------|
B|-------3---3/5---3---------------------------------------------------------|
G|--2h4---------------4--2---(X7)--2h4--4--4--4/6--6--6/7--------------------|
D|---------------------------------------------------------------------------|
A|---------------------------------------------------------------------------|
E|---------------------------------------------------------------------------|

Repeat Chorus

Repeat 1stpartVerse?

Repeat 2stpartVerse?

Repeat Chorus

1stpartVerse2?

e|--2~--2~--0~--0~---2~--2~--0~--------|
B|--3~--3~--2~--2~---3~--3~--2~--------|
G|--0~--0~--2~--2~---0~--0~--2~--------|
D|--2~--x---0~--0~---2~--x---0~--------|
A|------0~---------------0~------------|
E|-------------------------------------|

e|-------------2--2--------2-------------------------------------------------|
B|-------3-----3--3-----3--3-------------------5--5--------5-----------------|
G|--2/4-----4--------4-------(X2)--------6-----6--6-----6--6---(X2)----------|
D|----------------------------------4/7-----7--------7-----------------------|
A|---------------------------------------------------------------------------|
E|---------------------------------------------------------------------------|

e|-------------2--2--------2-------------------------------------------------|
B|-------3-----3--3-----3--3-------------------5--5--------5-----------------|
G|--2/4-----4--------4-------(X2)--------6-----6--6-----6--6---(X2)----------|
D|----------------------------------4/7-----7--------7-----------------------|
A|---------------------------------------------------------------------------|
E|---------------------------------------------------------------------------|

e|-------------2--2--------2-------------------------------------------------|
B|-------3-----3--3-----3--3-------------------5--5--------5-----------------|
G|--2/4-----4--------4-------(X2)--------6-----6--6-----6--6-(X2)------------|
D|----------------------------------4/7-----7--------7-----------------------|
A|---------------------------------------------------------------------------|
E|---------------------------------------------------------------------------|
Tap to rate this tab
# A B C D E F G H I J K L M N O P Q R S T U V W X Y Z