Song name
# A B C D E F G H I J K L M N O P Q R S T U V W X Y Z

Homegrown - Get A Job tab

This song rules! Ok, here it goes...

(Intro & After Chorus)Play this fast!
E|------------------------------------------------------|\
B|------------------------------------------------------| \
G|----66-7--------66-7--------66-7------------66-7------|  Play Twice
D|-77-66-7-2---77-66-7-2---77-66-7-22-66-9-77-66-7-2----|  /
A|-77-44-5-2---77-44-5-2---77-44-5-22-66-9-77-44-5-2----| /
E|-55------0---55------0---55------00-44-7-55------0----|/

After the second time, end with this going into the lyrics

E|------------------------------------------------------|\
B|------------------------------------------------------| \
G|----------777777799999997777777--------7777777-99-7-2-|  Play Three Xs
D|--2-777777777777799999997777777-77777777777777-99-7-2-|  /
A|--2-777777555555577777775555555-77777775555555-77-5-0-| /
E|--0-555555----------------------5555555---------------|/

After Heavy palm muting

E|------------------------------|\
B|------------------------------| \
G|--9-7-6-2-2--7---7------------|  Repeat 7 part twice then repeat whole song
D|--9-7-6-2-2--7-7-7--777777----|  /      7
A|--7-5-4-4-0--5-7-5--777777----| /       5
E|---------------5----555555----|/
Tap to rate this tab
# A B C D E F G H I J K L M N O P Q R S T U V W X Y Z