Guitaretab - guitar tabs
Song name
# A B C D E F G H I J K L M N O P Q R S T U V W X Y Z

Homegrown - Nowhere Slow tab

t. See http://www.olga.net/faq/ for more information.                     #
#-----------------------------------------------------------------------------#

From: "Andrew Kolenbrander" 
Subject: h/homegrown/nowhere_slow.tab
Date: Fri, 31 Dec 1999 01:08:53 PST

Artist: Homegrown
Song: Nowhere Slow
Album: Act Your Age
Written by: Adam Lohrbach
Transcribed By: Andrew Kolenbrander (ajkole@hotmail.com)

(* = palm mute)
(~ = let ring)

Intro

Part 1(2x):
    G      C F     C/B E      E D#    D#/D
E|------------------------------------------------------------
B|------------------------------------------------------------
G|---------5-------5/4-9-9999-9-8-888-8/7---------------------
D|--5-5555-5-3-333-5/4-9-9999-9-8-888-8/7---------------------
A|--5-5555-3-3-333-3/2-7-7777-7-6-666-6/5---------------------
e|--3-3333---1-111--------------------------------------------
      ****     ***       ****     ***
Then:

Part 2
    G        A        B        C         B        A        G        D
E|--------------------------------------------------------------------
B|--------------------------------------------------------------------
G|---------------------------------------------------------[--2x--]---
D|--5-55-555-7-77-777-9-99-999-10-101010-9-99-999-7-77-777-5-55-555---
A|------------------------------------------------------------------5~
e|--------------------------------------------------------------------
        (Guitar 2 plays same but power chord version)
Riff A

     Guitar 1   |  Guitar 2
    D  A  B   C    E  G D E
E|------------------------------------------------------------
B|------------------------------------------------------------
G|-----------------9-12-7-9-----------------------------------
D|-12~-7~-9~10~---9-12-7-9-----------------------------------
A|-----------------7-10-5-7-----------------------------------
e|-----------------*palm mute pattern along with the chords---
   lyrics........

Pre-Chorus

     D         E C        D         E D#    D
E|------------------------------------------------------------
B|------------------------------------------------------------
G|---7-7777777-9-5555555--7-7777777-9-88888-7-----------------
D|---7-7777777-9-5555555--7-7777777-9-88888-7-----------------
A|---5-5555555-7-3333333--5-5555555-7-66666-5-----------------
e|------------------------------------------------------------


Chorus

     G        D        E       F
E|------------------------------------------------------------
B|------------------------------------------------------------
G|-----------7-77-77--9-99-99-10-1010-1010--------------------
D|--5-55-55--7-77-77--9-99-99-10-1010-1010--------------------
A|--5-55-55--5-55-55--7-77-77--8--8-8--8-8--------------------
e|--3-33-33---------------------------------------------------
        Seems ........

    G        D        E            E\F/E
E|------------------------------------------------------------
B|------------------------------------------------------------
G|-----------7-77-77--9-9999-9-99-9/10/9----------------------
D|--5-55-55--7-77-77--9-9999-9-99-9/10/9----------------------
A|--5-55-55--5-55-55--7-7777-7-777/-8/7----------------------
e|--3-33-33---------------------------------------------------
                        ****   **

Then:

    G        D        E        D#
E|------------------------------------------------------------
B|------------------------------------------------------------
G|-----------7-77-77--9-99-99--8-8888------------------------
D|--5-55-55--7-77-77--9-99-99--8-88-88------------------------
A|--5-55-55--5-55-55--7-77-77--6-66-66------------------------
e|--3-33-33---------------------------------------------------

    C        D        F        C
E|------------------------------------------------------------
B|------------------------------------------------------------
G|--5-55-55--7-77-77-----------5-55-55------------------------
D|--5-55-55--7-77-77--3-33-33--5-55-55------------------------
A|--3-33-33--5-55-55--3-33-33--3-33-33------------------------
e|--------------------1-11-11---------------------------------

- Intro Part 1

- Riff A

- Pre-Chorus

- Chorus

Riff B

    G  F G  F G  F G
E|------------------------------------------------------------
B|------------------------------------------------------------
G|------------------------------------------------------------
D|--55-3-55-3-55-3-55-----------------------------------------
A|--55-3-55-3-55-3-55-----------------------------------------
e|--33-1-33-1-33-1-33-----------------------------------------

Riff C

    G   E  D  C  B  C           D
E|------------------------------------------------------------
B|------------------------------------------------------------
G|------9~-7~-5~-4~-5-555555555-7-777777777-------------------
D|--555-9~-7~-5~-4~-5-555555555-7-777777777-------------------
A|--555-7~-5~-3~-2~-3-333333333-5-555555555-------------------
e|--333-------------------------------------------------------
    ***               *********   *********

- Solo

- Chorus

- End with Riff B

#---------------------------------------------------------#
Any feedback, questions, comments, additions..e-mail me at
ajkole@hotmail.com
[ Tab from: http://www.guitaretab.com/h/homegrown/8511.html ]
Related for Nowhere Slow tab