Song name
# A B C D E F G H I J K L M N O P Q R S T U V W X Y Z

Homegrown - Sflb tab

#----------------------------------PLEASE NOTE---------------------------------#
#This file is the author's own work and represents their interpretation of the #
#song. You may only use this file for private study, scholarship, or research. #
#------------------------------------------------------------------------------##
SFLB
By : Homegrown
Tabbed By :  Robert Lauritson and David Aguilar

SFLB
Intro:
Do just before each letter is shouted i.e. "S. (play)F. (play) L.(play)"
E|-------------------------------------------------------------------------|
B|-------------------------------------------------------------------------|
G|---0--5--0--5--7---------------------------------------------------------|
D|---0--5--0--5--7---------------------------------------------------------|
A|---------------5---------------------------------------------------------|
E|-------------------------------------------------------------------------|

Chorus:

E|-------------------------------------------------------------------------|
B|-------------------------------------------------------------------------|
G|---5-5-6-7---------------------------------------------------------------|
D|---5-5-6-7---------------------------------------------------------------|
A|---3-3-4-5---------------------------------------------------------------|
E|-------------------------------------------------------------------------|

Verse:

E|-------------------------------------------------------------------------|
B|-------------------------------------------------------------------------|
G|---7-7-7-7-10-10-10-10-12-12-12-12---------------------------------------|
D|---7-7-7-7-10-10-10-10-12-12-12-12---------------------------------------|
A|---5-5-5-5-8--8--8--8--10-10-10-10---------------------------------------|
E|-------------------------------------------------------------------------|

That should about do it.....

PunX NoT DeaD !-
neurd@ix.netcom.com
Tap to rate this tab
# A B C D E F G H I J K L M N O P Q R S T U V W X Y Z