Song name
# A B C D E F G H I J K L M N O P Q R S T U V W X Y Z

Homer Hiccolm And The Rocketboys - Bulletproof tab

-------------------------------------------------------------------------------

                Bulletproof- Homer Hiccolm and the Rocketboys
-------------------------------------------------------------------------------
Tabbed by: Michael Perkins
Email: themavrixdude@yahoo.com

This track is on the South Plains EP but its hidden. After the song "Grey" thre's about 
two minute pause and the this song starts. This is probably about 94.63 % correctish. as 
were.

Tuning: Standard

Intro/Verses

e|-------------------------------------------------------------------------|
B|-------------------------------------------------------------------------|
G|--2---4---6----7------7--6-----6--7------7--4------4---------------------|
D|------------------0---------0---------0---------0------------------------|
A|-------------------------------------------------------------------------|
E|--3---3---5----7---7-----5---5----7----7----3----3-----------------------|

e|-------------------------------------------------------------------------|
B|-------------------------------------------------------------------------|
G|--7-----7--6-----6--4-----4-4-----4-2h4-----4-4--------------------------|
D|-----0-------0--------0-------0---------0--------------------------------|
A|-------------------------------------------------------------------------|
E|--7---7----5---5----3---3---3---3---3-----3---3--------------------------|

Chorus

    OHHH~~~~~
e|-------------------------------------------------------------------------|
B|-------------------------------------------------------------------------|
G|--12-----12-12------12-11------11-11------11-----------------------------|
D|-----0---------0----------0----------0-----------------------------------|
A|-------------------------------------------------------------------------|
E|--12--12----12---12----10---10----10---10--------------------------------|

    I cannot     pretend
 I honestly  don't  remember
e|-------------------------------------------------------------------------|
B|-------------------------------------------------------------------------|
G|--7-----7--6-----6--4-----4-4-----4-2h4-----4-4--------------------------|
D|-----0-------0--------0-------0---------0--------------------------------|
A|-------------------------------------------------------------------------|
E|--7---7----5---5----3---3---3---3---3-----3---3--------------------------|

(after second time)
e|-------------------------------------------------------------------------|
B|-------------------------------------------------------------------------|
G|--9-----9--6-----6--2--4--7--6-----6-6-----6-6~~-------------------------|
D|----0--------0-----------------0-------0---------------------------------|
A|-------------------------------------------------------------------------|
E|--9---9----5---5----3--3--7--5---5---5---5---5~~-------------------------|


Bridge

I want you to be....               the way that you were
e|-------------------------------------------------------------------------|
B|-------------------------------------------------------------------------|
G|-------------7-----7-7-----7-7-----7-6-----6-4-----4-4-----4-2h4----4-4--|
D|---------------0-------0-------0-------0-------0-------0--------0--------|
A|-------------------------------------------------------------------------|
E|-------------7---7---7---7---7---7---5---5---3---3---3---3--------3---3--|

I want you to be....                   just like me...      [first time]
e|-------------------------------------------------------------------------|
B|-------------------------------------------------------------------------|
G|-------------7-----7-7-----7-7-----7-6---------4-[----4-4-----4-4------]-|
D|---------------0-------0-------0------------------0-------0--------------|
A|-------------------------------------------------------------------------|
E|-------------7---7---7---7---7---7---5---------3-[--3---3---3---3------]-|

x2

Outro

Same as Intro/Verses except end on last G w/B.


If these are wrong forgive me but, I'm tired and I'm just trying to help.

Lyrics:

I came here to see you why haven't you told me I'm yesterday
It seems like forever since you told me you wanted to be different again

Ohhh I cannot pretend
Ohhh I honestly don't remember

It feels like I've failed you, you're locked outside of tragedy and stuck looking in
The skin that surrounds you is hardened and bulletproof so I may not be in

Ohhh I cannot pretend
Ohhh I honestly don't remember

I want you to be...
The way that you were
I want you to be...
Just like me
I want you to be...
the way that you were
I want you to be...
Just like me

I came here to see you those blue eyes make you beautiful

The End


Gorgeous song. Please vote for HHRB to play at ACL. unfortunately i don't have the link 
here's their myspace.

www.myspace.com/rocketboys



| /  slide up
| \  slide down
| h  hammer-on
| p  pull-off
| ~  vibrato
| +  harmonic
| x  Mute note

============================================================================
Tap to rate this tab
# A B C D E F G H I J K L M N O P Q R S T U V W X Y Z