Song name
# A B C D E F G H I J K L M N O P Q R S T U V W X Y Z

Homestuck - Harlequin tab

Tabbed by: Yahnich
Email:

Tuning: EADGBE

e|----------------------------------------10-9/12-13-12-10-9h10-12h13-13/15|
B|-10-8-10-11-10-8-10p8---------10-8-10-11-----------------------------------|
G|----------------------10-9h10----------------------------------------------|
D|---------------------------------------------------------------------------|
A|---------------------------------------------------------------------------|
E|---------------------------------------------------------------------------|

e|-13-12-13p12--------------------12-13-15-13-12-13-15-17-13----17-17-16h17--|
B|-------------15--------------------------------------------15--------------|
G|----------------14-15-14-13-14---------------------------------------------|
D|---------------------------------------------------------------------------|
A|---------------------------------------------------------------------------|
E|---------------------------------------------------------------------------|
Repeat ad infinitum. The song is harlequin, a song in Homestuck

http://homestuck.bandcamp.com/album/homestuck-vol-1
Tap to rate this tab
 
# A B C D E F G H I J K L M N O P Q R S T U V W X Y Z