Homestuck - Pony Chorale tab

Song: Pony Chorale 
Tuning: EADGBE

e|-15-------13---------------------------------------11-15h16----|
B|----16-13----15---16--13----15-12---13----------13----------15-|
G|-------------------------12------------13-10-12----------------|
D|---------------------------------------------------------------|
A|---------------------------------------------------------------|
E|---------------------------------------------------------------|

e|-11-13-15------15-------13----15h16p15-18-20-13-15h16p15----13-|
B|------------------16-13----15----------------------------16----|
G|---------------------------------------------------------------|
D|---------------------------------------------------------------|
A|---------------------------------------------------------------|
E|---------------------------------------------------------------|

e|----11----10---------------------------------------------------|
B|-15----13----12h13---------------------------------------------|
G|---------------------------------------------------------------|
D|---------------------------------------------------------------|
A|---------------------------------------------------------------|
E|---------------------------------------------------------------|
Repeat ad infinitum

http://homestuck.bandcamp.com
Tap to rate this tab
 
# A B C D E F G H I J K L M N O P Q R S T U V W X Y Z