Song name
# A B C D E F G H I J K L M N O P Q R S T U V W X Y Z

Homestuck - Sburban Jungle tab

Tuning: EADGBE

e|----------------------------------------|
B|-------1-------1--1---0-----------------|
G|----2--2-------2---------2--------2-----|
D|----2-----------------------------2-----|
A|-0----------0---------------0-----------|
E|----------------------------------------|

This is the accompanying guitar repeat ad infinitum



e|------------------------------------------------------------------------0--|
B|-----------------------------------------------------------------3---------|
G|----2----2------0--------------------------2----0-------------------------2|
D|--------------------3---2----0------------------------3-----2--------------|
A|----------------------------------2----3-----------------------------------|
E|---------------------------------------------------------------------------|


e|---------------------------------------------------------------------------|
B|---------0------0----1-----0-------------------------0----0-----1----------|
G|----2----0------0----2-----0----2-----0----2----2----0----0-----2----------|
D|----2----0------0----2-----0----3-----2----3----3----0----0-----2----------|
A|----3---------------------------3-----2----3----3--------------------------|
E|---------------------------------------------------------------------------|



Melodic guitar repeat ad infinitum


http://homestuck.bandcamp.com/track/sburban-jungle
Tap to rate this tab
 
# A B C D E F G H I J K L M N O P Q R S T U V W X Y Z